999
DXF file: D:\work\DXF\20200714_коридор_пристенный\Комплект уплотнения шкаф пол \d_301351_104_pol_stk_.dxf
999
Pro/ENGINEER 2019030 by Parametric Technology Corporation
  0
SECTION
  2
HEADER
  9
$ACADVER
  1
AC1015
  9
$DWGCODEPAGE
  3
ANSI_1251
  9
$EXTMAX
 10
420.0
 20
297.0
 30
0.0
  9
$EXTMIN
 10
0.0
 20
0.0
 30
0.0
  9
$LIMMIN
 10
0.0
 20
0.0
  9
$LIMMAX
 10
420.0
 20
297.0
  9
$VIEWCTR
 10
210.0
 20
148.5
  9
$VIEWSIZE
 40
297.0
  9
$CLAYER
  8
0
  9
$LTSCALE
 40
23.1
  9
$CELTYPE
  6
BYLAYER
  9
$DIMSCALE
 40
1.0
  9
$DIMASZ
 40
4.0
  9
$DIMEXO
 40
0.0
  9
$DIMDLI
 40
15.96
  9
$DIMEXE
 40
0.5
  9
$DIMCEN
 40
3.78
  9
$DIMLFAC
 40
1.0
  9
$DIMBLK
  1
_FILLED
  9
$DIMALT
 70
0
  9
$DIMALTF
 40
0.0393700787
  9
$DIMTXT
 40
3.5
  9
$DIMTOL
 70
1
  9
$DIMLIM
 70
0
  9
$DIMTFAC
 40
1.0
  9
$DIMTP
 40
0.1
  9
$DIMTM
 40
0.1
  9
$DIMGAP
 40
0.625
  9
$DIMDSEP
 70
44
  9
$AUNITS
 70
0
  9
$PDMODE
 70
3
  9
$PDSIZE
 40
1.0
  9
$HANDSEED
  5
43D
  9
$TILEMODE
 70
1
  9
$MEASUREMENT
 70
1
  9
$INSUNITS
 70
4
  0
ENDSEC
  0
SECTION
  2
CLASSES
  0
CLASS
  1
ACDBDICTIONARYWDFLT
  2
AcDbDictionaryWithDefault
  3
AutoCAD 2000
 90
0
280
0
281
0
  0
CLASS
  1
ACDBPLACEHOLDER
  2
AcDbPlaceHolder
  3
AutoCAD 2000
 90
0
280
0
281
0
  0
CLASS
  1
LAYOUT
  2
AcDbLayout
  3
AutoCAD 2000
 90
0
280
0
281
0
  0
ENDSEC
  0
SECTION
  2
TABLES
  0
TABLE
  2
VPORT
  5
8
100
AcDbSymbolTable
 70
2
  0
VPORT
  5
1F4
100
AcDbSymbolTableRecord
100
AcDbViewportTableRecord
  2
*ACTIVE
 70
0
 10
0.0
 20
0.0
 11
1.0
 21
1.0
 12
210.0
 22
148.5
 13
0.0
 23
0.0
 14
1.0
 24
1.0
 15
0.0
 25
0.0
 16
0.0
 26
0.0
 36
1.0
 17
0.0
 27
0.0
 37
0.0
 40
297.0
 41
1.4141414141
 42
50.0
 43
0.0
 44
0.0
 50
0.0
 51
0.0
 71
0
 72
100
 73
1
 74
1
 75
0
 76
0
 77
0
 78
0
  0
ENDTAB
  0
TABLE
  2
LTYPE
  5
5
100
AcDbSymbolTable
 70
6
  0
LTYPE
  5
14
100
AcDbSymbolTableRecord
100
AcDbLinetypeTableRecord
  2
BYBLOCK
 70
0
  3

 72
65
 73
0
 40
0.0
  0
LTYPE
  5
15
100
AcDbSymbolTableRecord
100
AcDbLinetypeTableRecord
  2
BYLAYER
 70
0
  3

 72
65
 73
0
 40
0.0
  0
LTYPE
  5
16
100
AcDbSymbolTableRecord
100
AcDbLinetypeTableRecord
  2
CONTINUOUS
 70
64
  3
Solid line
 72
65
 73
0
 40
0.0
  0
LTYPE
  5
1F5
100
AcDbSymbolTableRecord
100
AcDbLinetypeTableRecord
  2
CENTER
 70
64
  3
____ _ ____ _ ____ _ ____ _ ____ _ ____ _ ____
 72
65
 73
4
 40
0.6
 49
0.375
 74
0
 49
-0.075
 74
0
 49
0.075
 74
0
 49
-0.075
 74
0
  0
LTYPE
  5
1F6
100
AcDbSymbolTableRecord
100
AcDbLinetypeTableRecord
  2
HIDDEN
 70
64
  3
- - - - - - - - - - - - - - - - - - - -
 72
65
 73
2
 40
0.2
 49
0.1
 74
0
 49
-0.1
 74
0
  0
LTYPE
  5
1F7
100
AcDbSymbolTableRecord
100
AcDbLinetypeTableRecord
  2
PHANTOM
 70
64
  3
_____ _ _ _____ _ _ _____ _ _ _____
 72
65
 73
6
 40
0.8
 49
0.45
 74
0
 49
-0.05
 74
0
 49
0.1
 74
0
 49
-0.05
 74
0
 49
0.1
 74
0
 49
-0.05
 74
0
  0
LTYPE
  5
1F8
100
AcDbSymbolTableRecord
100
AcDbLinetypeTableRecord
  2
DOT
 70
64
  3
. . . . . . . . . . . . . . . . . . . .
 72
65
 73
2
 40
0.2
 49
0.1
 74
0
 49
-0.1
 74
0
  0
LTYPE
  5
1F9
100
AcDbSymbolTableRecord
100
AcDbLinetypeTableRecord
  2
DASHED
 70
64
  3
- - - - - - - - - - - - - - - - - - - -
 72
65
 73
2
 40
0.2
 49
0.1
 74
0
 49
-0.1
 74
0
  0
ENDTAB
  0
TABLE
  2
LAYER
  5
2
100
AcDbSymbolTable
 70
36
  0
LAYER
  5
10
100
AcDbSymbolTableRecord
100
AcDbLayerTableRecord
  2
0
 70
0
 62
7
  6
CONTINUOUS
370
-3
390
F
  0
LAYER
  5
1FA
100
AcDbSymbolTableRecord
100
AcDbLayerTableRecord
  2
DEFAULT_1
 70
0
 62
7
  6
CENTER
370
-3
390
F
  0
LAYER
  5
1FB
100
AcDbSymbolTableRecord
100
AcDbLayerTableRecord
  2
DEFAULT_2
 70
0
 62
8
  6
HIDDEN
370
-3
390
F
  0
LAYER
  5
1FC
100
AcDbSymbolTableRecord
100
AcDbLayerTableRecord
  2
DEFAULT_3
 70
0
 62
7
  6
PHANTOM
370
-3
390
F
  0
LAYER
  5
1FD
100
AcDbSymbolTableRecord
100
AcDbLayerTableRecord
  2
01_ALL_DTM_PLN
 70
0
 62
7
  6
CONTINUOUS
370
-3
390
F
  0
LAYER
  5
1FE
100
AcDbSymbolTableRecord
100
AcDbLayerTableRecord
  2
01__ASM_ALL_DTM_PLN
 70
0
 62
7
  6
CONTINUOUS
370
-3
390
F
  0
LAYER
  5
1FF
100
AcDbSymbolTableRecord
100
AcDbLayerTableRecord
  2
01__ASM_DEF_DTM_PLN
 70
0
 62
7
  6
CONTINUOUS
370
-3
390
F
  0
LAYER
  5
200
100
AcDbSymbolTableRecord
100
AcDbLayerTableRecord
  2
01___PRT_ALL_DTM_PLN
 70
0
 62
7
  6
CONTINUOUS
370
-3
390
F
  0
LAYER
  5
201
100
AcDbSymbolTableRecord
100
AcDbLayerTableRecord
  2
01___PRT_DEF_DTM_PLN
 70
0
 62
7
  6
CONTINUOUS
370
-3
390
F
  0
LAYER
  5
202
100
AcDbSymbolTableRecord
100
AcDbLayerTableRecord
  2
02_ALL_AXES
 70
0
 62
7
  6
CONTINUOUS
370
-3
390
F
  0
LAYER
  5
203
100
AcDbSymbolTableRecord
100
AcDbLayerTableRecord
  2
02__ASM_ALL_AXES
 70
0
 62
7
  6
CONTINUOUS
370
-3
390
F
  0
LAYER
  5
204
100
AcDbSymbolTableRecord
100
AcDbLayerTableRecord
  2
02___PRT_ALL_AXES
 70
0
 62
7
  6
CONTINUOUS
370
-3
390
F
  0
LAYER
  5
205
100
AcDbSymbolTableRecord
100
AcDbLayerTableRecord
  2
03_ALL_CURVES
 70
0
 62
7
  6
CONTINUOUS
370
-3
390
F
  0
LAYER
  5
206
100
AcDbSymbolTableRecord
100
AcDbLayerTableRecord
  2
03__ASM_ALL_CURVES
 70
0
 62
7
  6
CONTINUOUS
370
-3
390
F
  0
LAYER
  5
207
100
AcDbSymbolTableRecord
100
AcDbLayerTableRecord
  2
03___PRT_ALL_CURVES
 70
0
 62
7
  6
CONTINUOUS
370
-3
390
F
  0
LAYER
  5
208
100
AcDbSymbolTableRecord
100
AcDbLayerTableRecord
  2
04_ALL_DTM_PNT
 70
0
 62
7
  6
CONTINUOUS
370
-3
390
F
  0
LAYER
  5
209
100
AcDbSymbolTableRecord
100
AcDbLayerTableRecord
  2
04__ASM_ALL_DTM_PNT
 70
0
 62
7
  6
CONTINUOUS
370
-3
390
F
  0
LAYER
  5
20A
100
AcDbSymbolTableRecord
100
AcDbLayerTableRecord
  2
04___PRT_ALL_DTM_PNT
 70
0
 62
7
  6
CONTINUOUS
370
-3
390
F
  0
LAYER
  5
20B
100
AcDbSymbolTableRecord
100
AcDbLayerTableRecord
  2
05_ALL_DTM_CSYS
 70
0
 62
7
  6
CONTINUOUS
370
-3
390
F
  0
LAYER
  5
20C
100
AcDbSymbolTableRecord
100
AcDbLayerTableRecord
  2
05__ASM_ALL_DTM_CSYS
 70
0
 62
7
  6
CONTINUOUS
370
-3
390
F
  0
LAYER
  5
20D
100
AcDbSymbolTableRecord
100
AcDbLayerTableRecord
  2
05__ASM_DEF_DTM_CSYS
 70
0
 62
7
  6
CONTINUOUS
370
-3
390
F
  0
LAYER
  5
20E
100
AcDbSymbolTableRecord
100
AcDbLayerTableRecord
  2
05___PRT_ALL_DTM_CSYS
 70
0
 62
7
  6
CONTINUOUS
370
-3
390
F
  0
LAYER
  5
20F
100
AcDbSymbolTableRecord
100
AcDbLayerTableRecord
  2
05___PRT_DEF_DTM_CSYS
 70
0
 62
7
  6
CONTINUOUS
370
-3
390
F
  0
LAYER
  5
210
100
AcDbSymbolTableRecord
100
AcDbLayerTableRecord
  2
06_ALL_SURFS
 70
0
 62
7
  6
CONTINUOUS
370
-3
390
F
  0
LAYER
  5
211
100
AcDbSymbolTableRecord
100
AcDbLayerTableRecord
  2
06__ASM_ALL_SURFS
 70
0
 62
7
  6
CONTINUOUS
370
-3
390
F
  0
LAYER
  5
212
100
AcDbSymbolTableRecord
100
AcDbLayerTableRecord
  2
06___PRT_ALL_SURFS
 70
0
 62
7
  6
CONTINUOUS
370
-3
390
F
  0
LAYER
  5
213
100
AcDbSymbolTableRecord
100
AcDbLayerTableRecord
  2
07__ASM_ALL_ANNOTATION
 70
0
 62
7
  6
CONTINUOUS
370
-3
390
F
  0
LAYER
  5
214
100
AcDbSymbolTableRecord
100
AcDbLayerTableRecord
  2
07__ASM_ALL_SKELETONS
 70
0
 62
7
  6
CONTINUOUS
370
-3
390
F
  0
LAYER
  5
215
100
AcDbSymbolTableRecord
100
AcDbLayerTableRecord
  2
07__PRT_ALL_ANNOTATION
 70
0
 62
7
  6
CONTINUOUS
370
-3
390
F
  0
LAYER
  5
216
100
AcDbSymbolTableRecord
100
AcDbLayerTableRecord
  2
AXIS
 70
0
 62
7
  6
CONTINUOUS
370
-3
390
F
  0
ENDTAB
  0
TABLE
  2
STYLE
  5
3
100
AcDbSymbolTable
 70
1
  0
STYLE
  5
11
100
AcDbSymbolTableRecord
100
AcDbTextStyleTableRecord
  2
STANDARD
 70
0
 40
0.0
 41
1.0
 50
0.0
 71
0
 42
0.2
  3
gost.ttf
  4

  0
STYLE
  5
217
100
AcDbSymbolTableRecord
100
AcDbTextStyleTableRecord
  2
TEXTSTYLE_1
 70
0
 40
0.0
 41
0.8
 50
0.0
 71
0
 42
0.2
  3
gdt
  4

  0
STYLE
  5
218
100
AcDbSymbolTableRecord
100
AcDbTextStyleTableRecord
  2
TEXTSTYLE_2
 70
0
 40
0.0
 41
1.0
 50
0.0
 71
0
 42
0.2
  3
gost.ttf
  4

  0
STYLE
  5
219
100
AcDbSymbolTableRecord
100
AcDbTextStyleTableRecord
  2
TEXTSTYLE_3
 70
0
 40
0.0
 41
1.0
 50
0.0
 71
0
 42
0.2
  3
gost.ttf
  4

  0
STYLE
  5
21A
100
AcDbSymbolTableRecord
100
AcDbTextStyleTableRecord
  2
TEXTSTYLE_4
 70
0
 40
0.0
 41
1.0
 50
0.0
 71
0
 42
0.2
  3
gost.ttf
  4

  0
STYLE
  5
21B
100
AcDbSymbolTableRecord
100
AcDbTextStyleTableRecord
  2
TEXTSTYLE_5
 70
0
 40
0.0
 41
1.0
 50
0.0
 71
0
 42
0.2
  3
gost.ttf
  4

  0
ENDTAB
  0
TABLE
  2
VIEW
  5
6
100
AcDbSymbolTable
 70
0
  0
ENDTAB
  0
TABLE
  2
UCS
  5
7
100
AcDbSymbolTable
 70
0
  0
ENDTAB
  0
TABLE
  2
APPID
  5
9
100
AcDbSymbolTable
 70
1
  0
APPID
  5
21C
100
AcDbSymbolTableRecord
100
AcDbRegAppTableRecord
  2
ACAD
 70
0
  0
ENDTAB
  0
TABLE
  2
BLOCK_RECORD
  5
1
100
AcDbSymbolTable
 70
0
  0
BLOCK_RECORD
  5
21D
100
AcDbSymbolTableRecord
100
AcDbBlockTableRecord
  2
*Model_Space
  0
BLOCK_RECORD
  5
21E
100
AcDbSymbolTableRecord
100
AcDbBlockTableRecord
  2
*Paper_Space
  0
BLOCK_RECORD
  5
21F
100
AcDbSymbolTableRecord
100
AcDbBlockTableRecord
  2
_FILLED
  0
ENDTAB
  0
TABLE
  2
DIMSTYLE
  5
A
100
AcDbSymbolTable
 70
1
100
AcDbDimStyleTable
 71
0
  0
DIMSTYLE
105
220
100
AcDbSymbolTableRecord
100
AcDbDimStyleTableRecord
  2
STANDARD
 70
0
  3

  4

 40
1.0
 41
4.0
 42
0.0
 43
0.38
 44
0.5
 45
0.0
 46
0.0
 47
0.1
 48
0.1
140
3.5
141
0.09
142
0.0
143
25.4
144
1.0
145
0.0
146
1.0
147
0.625
 71
1.0
 72
0.0
 73
0
 74
0
 75
0
 76
0
 77
1
 78
8
 79
2
170
0
171
0
172
0
173
0
174
0
175
0
176
0
177
0
178
0
270
2
179
1
271
1
272
1
273
2
274
2
275
0
280
0
281
0
282
0
283
1
284
8
285
0
286
0
287
3
288
0
340
11
278
44
341
21F
342
21F
343
21F
344
21F
  0
ENDTAB
  0
ENDSEC
  0
SECTION
  2
BLOCKS
  0
BLOCK
  5
20
100
AcDbEntity
  8
0
100
AcDbBlockBegin
  2
*Model_Space
 70
0
 10
0.0
 20
0.0
 30
0.0
  3
*Model_Space
  1

  0
ENDBLK
  5
21
100
AcDbEntity
  8
0
100
AcDbBlockEnd
  0
BLOCK
  5
1C
100
AcDbEntity
  8
0
100
AcDbBlockBegin
  2
*Paper_Space
 70
0
 10
0.0
 20
0.0
 30
0.0
  3
*Paper_Space
  1

  0
ENDBLK
  5
1D
100
AcDbEntity
  8
0
100
AcDbBlockEnd
  0
BLOCK
  5
221
100
AcDbEntity
  8
0
100
AcDbBlockBegin
  2
_FILLED
 70
64
 10
0.0
 20
0.0
  3
_FILLED
  1

  0
SOLID
  5
222
100
AcDbEntity
  8
0
  6
BYBLOCK
 62
0
100
AcDbTrace
 10
0.0
 20
0.0
 11
-1.0
 21
0.125
 12
-1.0
 22
-0.125
 13
-1.0
 23
-0.125
  0
ENDBLK
  5
223
100
AcDbEntity
  8
0
  6
BYBLOCK
 62
0
100
AcDbBlockEnd
  0
ENDSEC
  0
SECTION
  2
ENTITIES
  0
MTEXT
  5
224
100
AcDbEntity
  8
0
100
AcDbMText
 62
2
  6
CONTINUOUS
  7
TEXTSTYLE_2
 71
1
 72
1
 10
393.0
 20
4.5
 30
0.0
 11
1.0
 21
0.0
 31
0.0
 73
2
 44
0.9
  1
Формат А3
 40
3.0
 41
18.1213235294
  0
MTEXT
  5
225
100
AcDbEntity
  8
0
100
AcDbMText
 62
2
  6
CONTINUOUS
  7
TEXTSTYLE_2
 71
1
 72
1
 10
295.0
 20
4.5
 30
0.0
 11
1.0
 21
0.0
 31
0.0
 73
2
 44
0.9
  1
Копировал:
 40
3.0
 41
16.5110294118
  0
MTEXT
  5
226
100
AcDbEntity
  8
0
100
AcDbMText
 62
2
  6
CONTINUOUS
  7
TEXTSTYLE_2
 71
1
 72
1
 10
295.0017950139
 20
4.5007592282
 30
0.0
 11
1.0
 21
0.0
 31
0.0
 73
2
 44
0.9
  1
Копировал:
 40
3.0
 41
16.5110294118
  0
LINE
  5
227
100
AcDbEntity
  8
0
100
AcDbLine
 62
7
  6
CONTINUOUS
 10
8.0
 20
5.0
 11
8.0
 21
150.0
  0
LINE
  5
228
100
AcDbEntity
  8
0
100
AcDbLine
 62
7
  6
CONTINUOUS
 10
8.0
 20
5.0
 11
20.0
 21
5.0
  0
LINE
  5
229
100
AcDbEntity
  8
0
100
AcDbLine
 62
7
  6
CONTINUOUS
 10
13.0
 20
5.0
 11
13.0
 21
150.0
  0
LINE
  5
22A
100
AcDbEntity
  8
0
100
AcDbLine
 62
7
  6
CONTINUOUS
 10
20.0
 20
5.0
 11
20.0
 21
150.0
  0
LINE
  5
22B
100
AcDbEntity
  8
0
100
AcDbLine
 62
7
  6
CONTINUOUS
 10
8.0
 20
30.0
 11
20.0
 21
30.0
  0
LINE
  5
22C
100
AcDbEntity
  8
0
100
AcDbLine
 62
7
  6
CONTINUOUS
 10
8.0
 20
65.0
 11
20.0
 21
65.0
  0
LINE
  5
22D
100
AcDbEntity
  8
0
100
AcDbLine
 62
7
  6
CONTINUOUS
 10
8.0
 20
90.0
 11
20.0
 21
90.0
  0
LINE
  5
22E
100
AcDbEntity
  8
0
100
AcDbLine
 62
7
  6
CONTINUOUS
 10
8.0
 20
115.0
 11
20.0
 21
115.0
  0
LINE
  5
22F
100
AcDbEntity
  8
0
100
AcDbLine
 62
7
  6
CONTINUOUS
 10
8.0
 20
150.0
 11
20.0
 21
150.0
  0
MTEXT
  5
230
100
AcDbEntity
  8
0
100
AcDbMText
 62
2
  6
CONTINUOUS
  7
TEXTSTYLE_2
 71
2
 72
1
 10
10.0
 20
17.5
 30
0.0
 11
0.0
 21
1.0
 31
0.0
 73
2
 44
0.9
  1
 \H3.0;Инв.N подл.
 40
2.0
 41
18.6176470588
  0
MTEXT
  5
231
100
AcDbEntity
  8
0
100
AcDbMText
 62
2
  6
CONTINUOUS
  7
TEXTSTYLE_2
 71
2
 72
1
 10
9.0
 20
47.5
 30
0.0
 11
0.0
 21
1.0
 31
0.0
 73
2
 44
0.9
  1
 Подп. и дата
 40
3.0
 41
22.6102941176
  0
MTEXT
  5
232
100
AcDbEntity
  8
0
100
AcDbMText
 62
2
  6
CONTINUOUS
  7
TEXTSTYLE_2
 71
2
 72
1
 10
10.0
 20
77.5
 30
0.0
 11
0.0
 21
1.0
 31
0.0
 73
2
 44
0.9
  1
 \H3.0;Взам.инв.N
 40
2.0
 41
16.8860294118
  0
MTEXT
  5
233
100
AcDbEntity
  8
0
100
AcDbMText
 62
2
  6
CONTINUOUS
  7
TEXTSTYLE_2
 71
2
 72
1
 10
10.0
 20
102.5
 30
0.0
 11
0.0
 21
1.0
 31
0.0
 73
2
 44
0.9
  1
 \H3.0;Инв.N дубл.
 40
2.0
 41
18.6176470588
  0
MTEXT
  5
234
100
AcDbEntity
  8
0
100
AcDbMText
 62
2
  6
CONTINUOUS
  7
TEXTSTYLE_2
 71
2
 72
1
 10
9.0
 20
132.5
 30
0.0
 11
0.0
 21
1.0
 31
0.0
 73
2
 44
0.9
  1
 Подп. и дата
 40
3.0
 41
22.6102941176
  0
LINE
  5
235
100
AcDbEntity
  8
0
100
AcDbLine
 62
7
  6
CONTINUOUS
 10
8.0
 20
292.0
 11
20.0
 21
292.0
  0
LINE
  5
236
100
AcDbEntity
  8
0
100
AcDbLine
 62
7
  6
CONTINUOUS
 10
8.0
 20
292.0
 11
8.0
 21
172.0
  0
LINE
  5
237
100
AcDbEntity
  8
0
100
AcDbLine
 62
7
  6
CONTINUOUS
 10
8.0
 20
232.0
 11
20.0
 21
232.0
  0
LINE
  5
238
100
AcDbEntity
  8
0
100
AcDbLine
 62
7
  6
CONTINUOUS
 10
8.0
 20
172.0
 11
20.0
 21
172.0
  0
LINE
  5
239
100
AcDbEntity
  8
0
100
AcDbLine
 62
7
  6
CONTINUOUS
 10
13.0
 20
292.0
 11
13.0
 21
172.0
  0
LINE
  5
23A
100
AcDbEntity
  8
0
100
AcDbLine
 62
7
  6
CONTINUOUS
 10
20.0
 20
292.0
 11
20.0
 21
172.0
  0
MTEXT
  5
23B
100
AcDbEntity
  8
0
100
AcDbMText
 62
2
  6
CONTINUOUS
  7
TEXTSTYLE_2
 71
1
 72
1
 10
8.65
 20
251.5551470588
 30
0.0
 11
0.0
 21
1.0
 31
0.0
 73
2
 44
0.9
  1
Перв. примен.
 40
3.0
 41
20.8897058824
  0
MTEXT
  5
23C
100
AcDbEntity
  8
0
100
AcDbMText
 62
2
  6
CONTINUOUS
  7
TEXTSTYLE_2
 71
1
 72
1
 10
8.65
 20
195.4485294118
 30
0.0
 11
0.0
 21
1.0
 31
0.0
 73
2
 44
0.9
  1
Справ. N
 40
3.0
 41
13.1029411765
  0
LINE
  5
23D
100
AcDbEntity
  8
0
100
AcDbLine
 62
7
  6
CONTINUOUS
 10
90.0
 20
278.0
 11
20.0
 21
278.0
  0
LINE
  5
23E
100
AcDbEntity
  8
0
100
AcDbLine
 62
7
  6
CONTINUOUS
 10
90.0
 20
278.0
 11
90.0
 21
292.0
  0
LINE
  5
23F
100
AcDbEntity
  8
0
100
AcDbLine
 62
7
  6
CONTINUOUS
 10
90.0
 20
292.0
 11
20.0
 21
292.0
  0
LINE
  5
240
100
AcDbEntity
  8
0
100
AcDbLine
 62
7
  6
CONTINUOUS
 10
20.0
 20
278.0
 11
20.0
 21
292.0
  0
MTEXT
  5
241
100
AcDbEntity
  8
0
100
AcDbMText
 62
7
  6
CONTINUOUS
  7
TEXTSTYLE_3
 71
2
 72
1
 10
55.0
 20
282.5
 30
0.0
 11
-1.0
 21
0.0
 31
0.0
 73
2
 44
0.9
  1
 ИДФУ.301351.104{\W0.8; }СБ
 40
5.0
 41
54.0992647059
  0
LINE
  5
242
100
AcDbEntity
  8
0
100
AcDbLine
 62
2
  6
CONTINUOUS
 10
295.0017950139
 20
70.0007592282
 11
415.0017950139
 21
70.0007592282
  0
LINE
  5
243
100
AcDbEntity
  8
0
100
AcDbLine
 62
2
  6
CONTINUOUS
 10
295.0017950139
 20
70.0007592282
 11
295.0017950139
 21
60.0007592282
  0
LINE
  5
244
100
AcDbEntity
  8
0
100
AcDbLine
 62
2
  6
CONTINUOUS
 10
295.0017950139
 20
65.0007592282
 11
415.0017950139
 21
65.0007592282
  0
LINE
  5
245
100
AcDbEntity
  8
0
100
AcDbLine
 62
2
  6
CONTINUOUS
 10
295.0017950139
 20
60.0007592282
 11
415.0017950139
 21
60.0007592282
  0
LINE
  5
246
100
AcDbEntity
  8
0
100
AcDbLine
 62
2
  6
CONTINUOUS
 10
350.0017950139
 20
70.0007592282
 11
350.0017950139
 21
60.0007592282
  0
LINE
  5
247
100
AcDbEntity
  8
0
100
AcDbLine
 62
2
  6
CONTINUOUS
 10
415.0017950139
 20
70.0007592282
 11
415.0017950139
 21
60.0007592282
  0
MTEXT
  5
248
100
AcDbEntity
  8
0
100
AcDbMText
 62
2
  6
CONTINUOUS
  7
TEXTSTYLE_2
 71
1
 72
1
 10
295.0642950139
 20
68.9007592282
 30
0.0
 11
1.0
 21
0.0
 31
0.0
 73
2
 44
0.9
  1
 Имя файла модели
 40
2.8
 41
29.05
  0
MTEXT
  5
249
100
AcDbEntity
  8
0
100
AcDbMText
 62
2
  6
CONTINUOUS
  7
TEXTSTYLE_2
 71
1
 72
1
 10
350.0642950139
 20
69.0007592282
 30
0.0
 11
1.0
 21
0.0
 31
0.0
 73
2
 44
0.9
  1
 A_301351_104_POL_STK_
 40
3.0
 41
38.9669117647
  0
MTEXT
  5
24A
100
AcDbEntity
  8
0
100
AcDbMText
 62
2
  6
CONTINUOUS
  7
TEXTSTYLE_2
 71
1
 72
1
 10
295.0642950139
 20
63.9007592282
 30
0.0
 11
1.0
 21
0.0
 31
0.0
 73
2
 44
0.9
  1
 Имя файла чертежа
 40
2.8
 41
31.4794117647
  0
MTEXT
  5
24B
100
AcDbEntity
  8
0
100
AcDbMText
 62
2
  6
CONTINUOUS
  7
TEXTSTYLE_2
 71
1
 72
1
 10
350.0642950139
 20
64.0007592282
 30
0.0
 11
1.0
 21
0.0
 31
0.0
 73
2
 44
0.9
  1
 D_301351_104_POL_STK_
 40
3.0
 41
38.7463235294
  0
LINE
  5
24C
100
AcDbEntity
  8
0
100
AcDbLine
 62
2
  6
CONTINUOUS
 10
230.0017950139
 20
60.0007592282
 11
415.0017950139
 21
60.0007592282
  0
LINE
  5
24D
100
AcDbEntity
  8
0
100
AcDbLine
 62
2
  6
CONTINUOUS
 10
230.0017950139
 20
60.0007592282
 11
230.0017950139
 21
5.0007592282
  0
LINE
  5
24E
100
AcDbEntity
  8
0
100
AcDbLine
 62
2
  6
CONTINUOUS
 10
230.0017950139
 20
55.0007592282
 11
295.0017950139
 21
55.0007592282
  0
LINE
  5
24F
100
AcDbEntity
  8
0
100
AcDbLine
 62
2
  6
CONTINUOUS
 10
230.0017950139
 20
50.0007592282
 11
295.0017950139
 21
50.0007592282
  0
LINE
  5
250
100
AcDbEntity
  8
0
100
AcDbLine
 62
2
  6
CONTINUOUS
 10
230.0017950139
 20
45.0007592282
 11
415.0017950139
 21
45.0007592282
  0
LINE
  5
251
100
AcDbEntity
  8
0
100
AcDbLine
 62
2
  6
CONTINUOUS
 10
230.0017950139
 20
40.0007592282
 11
295.0017950139
 21
40.0007592282
  0
LINE
  5
252
100
AcDbEntity
  8
0
100
AcDbLine
 62
2
  6
CONTINUOUS
 10
365.0017950139
 20
40.0007592282
 11
415.0017950139
 21
40.0007592282
  0
LINE
  5
253
100
AcDbEntity
  8
0
100
AcDbLine
 62
2
  6
CONTINUOUS
 10
230.0017950139
 20
35.0007592282
 11
295.0017950139
 21
35.0007592282
  0
LINE
  5
254
100
AcDbEntity
  8
0
100
AcDbLine
 62
2
  6
CONTINUOUS
 10
230.0017950139
 20
30.0007592282
 11
295.0017950139
 21
30.0007592282
  0
LINE
  5
255
100
AcDbEntity
  8
0
100
AcDbLine
 62
2
  6
CONTINUOUS
 10
230.0017950139
 20
25.0007592282
 11
295.0017950139
 21
25.0007592282
  0
LINE
  5
256
100
AcDbEntity
  8
0
100
AcDbLine
 62
2
  6
CONTINUOUS
 10
365.0017950139
 20
25.0007592282
 11
415.0017950139
 21
25.0007592282
  0
LINE
  5
257
100
AcDbEntity
  8
0
100
AcDbLine
 62
2
  6
CONTINUOUS
 10
230.0017950139
 20
20.0007592282
 11
415.0017950139
 21
20.0007592282
  0
LINE
  5
258
100
AcDbEntity
  8
0
100
AcDbLine
 62
2
  6
CONTINUOUS
 10
230.0017950139
 20
15.0007592282
 11
295.0017950139
 21
15.0007592282
  0
LINE
  5
259
100
AcDbEntity
  8
0
100
AcDbLine
 62
2
  6
CONTINUOUS
 10
230.0017950139
 20
10.0007592282
 11
295.0017950139
 21
10.0007592282
  0
LINE
  5
25A
100
AcDbEntity
  8
0
100
AcDbLine
 62
2
  6
CONTINUOUS
 10
230.0017950139
 20
5.0007592282
 11
415.0017950139
 21
5.0007592282
  0
LINE
  5
25B
100
AcDbEntity
  8
0
100
AcDbLine
 62
2
  6
CONTINUOUS
 10
237.0017950139
 20
60.0007592282
 11
237.0017950139
 21
35.0007592282
  0
LINE
  5
25C
100
AcDbEntity
  8
0
100
AcDbLine
 62
2
  6
CONTINUOUS
 10
247.0017950139
 20
60.0007592282
 11
247.0017950139
 21
5.0007592282
  0
LINE
  5
25D
100
AcDbEntity
  8
0
100
AcDbLine
 62
2
  6
CONTINUOUS
 10
270.0017950139
 20
60.0007592282
 11
270.0017950139
 21
5.0007592282
  0
LINE
  5
25E
100
AcDbEntity
  8
0
100
AcDbLine
 62
2
  6
CONTINUOUS
 10
285.0017950139
 20
60.0007592282
 11
285.0017950139
 21
5.0007592282
  0
LINE
  5
25F
100
AcDbEntity
  8
0
100
AcDbLine
 62
2
  6
CONTINUOUS
 10
295.0017950139
 20
60.0007592282
 11
295.0017950139
 21
5.0007592282
  0
LINE
  5
260
100
AcDbEntity
  8
0
100
AcDbLine
 62
2
  6
CONTINUOUS
 10
365.0017950139
 20
45.0007592282
 11
365.0017950139
 21
5.0007592282
  0
LINE
  5
261
100
AcDbEntity
  8
0
100
AcDbLine
 62
2
  6
CONTINUOUS
 10
370.0017950139
 20
40.0007592282
 11
370.0017950139
 21
25.0007592282
  0
LINE
  5
262
100
AcDbEntity
  8
0
100
AcDbLine
 62
2
  6
CONTINUOUS
 10
375.0017950139
 20
40.0007592282
 11
375.0017950139
 21
25.0007592282
  0
LINE
  5
263
100
AcDbEntity
  8
0
100
AcDbLine
 62
2
  6
CONTINUOUS
 10
380.0017950139
 20
45.0007592282
 11
380.0017950139
 21
25.0007592282
  0
LINE
  5
264
100
AcDbEntity
  8
0
100
AcDbLine
 62
2
  6
CONTINUOUS
 10
385.0017950139
 20
25.0007592282
 11
385.0017950139
 21
20.0007592282
  0
LINE
  5
265
100
AcDbEntity
  8
0
100
AcDbLine
 62
2
  6
CONTINUOUS
 10
397.0017950139
 20
45.0007592282
 11
397.0017950139
 21
25.0007592282
  0
LINE
  5
266
100
AcDbEntity
  8
0
100
AcDbLine
 62
2
  6
CONTINUOUS
 10
415.0017950139
 20
60.0007592282
 11
415.0017950139
 21
5.0007592282
  0
MTEXT
  5
267
100
AcDbEntity
  8
0
100
AcDbMText
 62
7
  6
CONTINUOUS
  7
STANDARD
 71
2
 72
1
 10
355.0017950139
 20
55.5007592282
 30
0.0
 11
1.0
 21
0.0
 31
0.0
 73
2
 44
0.9
  1
ИДФУ.301351.104 СБ
 40
6.0
 41
61.2794117647
  0
MTEXT
  5
268
100
AcDbEntity
  8
0
100
AcDbMText
 62
2
  6
CONTINUOUS
  7
TEXTSTYLE_2
 71
1
 72
1
 10
366.2017950139
 20
43.0007592282
 30
0.0
 11
1.0
 21
0.0
 31
0.0
 73
2
 44
0.9
  1
 \H3.0;Лит.
 40
2.0
 41
8.1286764706
  0
MTEXT
  5
269
100
AcDbEntity
  8
0
100
AcDbMText
 62
2
  6
CONTINUOUS
  7
TEXTSTYLE_2
 71
1
 72
1
 10
381.2017950139
 20
42.8007592282
 30
0.0
 11
1.0
 21
0.0
 31
0.0
 73
2
 44
0.9
  1
 \H3.0;Масса
 40
1.8
 41
10.4448529412
  0
MTEXT
  5
26A
100
AcDbEntity
  8
0
100
AcDbMText
 62
2
  6
CONTINUOUS
  7
TEXTSTYLE_2
 71
1
 72
1
 10
398.2017950139
 20
44.0007592282
 30
0.0
 11
1.0
 21
0.0
 31
0.0
 73
2
 44
0.9
  1
Масштаб
 40
3.0
 41
14.1176470588
  0
MTEXT
  5
26B
100
AcDbEntity
  8
0
100
AcDbMText
 62
2
  6
CONTINUOUS
  7
TEXTSTYLE_2
 71
2
 72
1
 10
233.5017950139
 20
38.9007592282
 30
0.0
 11
1.0
 21
0.0
 31
0.0
 73
2
 44
0.9
  1
Изм
 40
2.8
 41
5.1573529412
  0
MTEXT
  5
26C
100
AcDbEntity
  8
0
100
AcDbMText
 62
2
  6
CONTINUOUS
  7
TEXTSTYLE_2
 71
2
 72
1
 10
242.0017950139
 20
39.0007592282
 30
0.0
 11
1.0
 21
0.0
 31
0.0
 73
2
 44
0.9
  1
Лист
 40
3.0
 41
8.0404411765
  0
MTEXT
  5
26D
100
AcDbEntity
  8
0
100
AcDbMText
 62
2
  6
CONTINUOUS
  7
TEXTSTYLE_2
 71
1
 72
1
 10
248.2017950139
 20
39.0007592282
 30
0.0
 11
1.0
 21
0.0
 31
0.0
 73
2
 44
0.9
  1
 N докум.
 40
3.0
 41
15.1323529412
  0
MTEXT
  5
26E
100
AcDbEntity
  8
0
100
AcDbMText
 62
2
  6
CONTINUOUS
  7
STANDARD
 71
1
 72
1
 10
271.2017950139
 20
37.5007592282
 30
0.0
 11
1.0
 21
0.0
 31
0.0
 73
2
 44
0.9
  1
 \H3.0;Подп.
 40
1.5
 41
8.7077205882
  0
MTEXT
  5
26F
100
AcDbEntity
  8
0
100
AcDbMText
 62
2
  6
CONTINUOUS
  7
STANDARD
 71
2
 72
1
 10
290.0017950139
 20
38.9007592282
 30
0.0
 11
1.0
 21
0.0
 31
0.0
 73
2
 44
0.9
  1
Дата
 40
2.8
 41
7.5044117647
  0
MTEXT
  5
270
100
AcDbEntity
  8
0
100
AcDbMText
 62
2
  6
CONTINUOUS
  7
TEXTSTYLE_2
 71
2
 72
1
 10
367.5017950139
 20
34.2507592282
 30
0.0
 11
1.0
 21
0.0
 31
0.0
 73
2
 44
0.9
  1
O
 40
3.5
 41
2.2775735294
  0
MTEXT
  5
271
100
AcDbEntity
  8
0
100
AcDbMText
 62
2
  6
CONTINUOUS
  7
TEXTSTYLE_2
 71
2
 72
1
 10
388.5017950139
 20
34.2507592282
 30
0.0
 11
1.0
 21
0.0
 31
0.0
 73
2
 44
0.9
  1
0,664
 40
3.5
 41
9.8308823529
  0
MTEXT
  5
272
100
AcDbEntity
  8
0
100
AcDbMText
 62
2
  6
CONTINUOUS
  7
TEXTSTYLE_2
 71
2
 72
1
 10
406.0017950139
 20
34.2507592282
 30
0.0
 11
1.0
 21
0.0
 31
0.0
 73
2
 44
0.9
  1
1:8
 40
3.5
 41
4.5165441176
  0
MTEXT
  5
273
100
AcDbEntity
  8
0
100
AcDbMText
 62
2
  6
CONTINUOUS
  7
TEXTSTYLE_2
 71
1
 72
1
 10
231.2017950139
 20
34.0007592282
 30
0.0
 11
1.0
 21
0.0
 31
0.0
 73
2
 44
0.9
  1
Разраб.
 40
3.0
 41
11.1617647059
  0
MTEXT
  5
274
100
AcDbEntity
  8
0
100
AcDbMText
 62
2
  6
CONTINUOUS
  7
TEXTSTYLE_3
 71
2
 72
1
 10
290.0017950139
 20
33.6007592282
 30
0.0
 11
1.0
 21
0.0
 31
0.0
 73
2
 44
0.9
  1
14.07.20
 40
2.2
 41
9.0183823529
  0
MTEXT
  5
275
100
AcDbEntity
  8
0
100
AcDbMText
 62
2
  6
CONTINUOUS
  7
TEXTSTYLE_2
 71
1
 72
1
 10
231.2017950139
 20
29.0007592282
 30
0.0
 11
1.0
 21
0.0
 31
0.0
 73
2
 44
0.9
  1
Пров.
 40
3.0
 41
7.7977941176
  0
MTEXT
  5
276
100
AcDbEntity
  8
0
100
AcDbMText
 62
2
  6
CONTINUOUS
  7
TEXTSTYLE_2
 71
1
 72
1
 10
231.2017950139
 20
24.0007592282
 30
0.0
 11
1.0
 21
0.0
 31
0.0
 73
2
 44
0.9
  1
Т.контр.
 40
3.0
 41
12.5294117647
  0
MTEXT
  5
277
100
AcDbEntity
  8
0
100
AcDbMText
 62
2
  6
CONTINUOUS
  7
TEXTSTYLE_2
 71
1
 72
1
 10
366.2017950139
 20
24.0007592282
 30
0.0
 11
1.0
 21
0.0
 31
0.0
 73
2
 44
0.9
  1
Лист 1
 40
3.0
 41
11.1617647059
  0
MTEXT
  5
278
100
AcDbEntity
  8
0
100
AcDbMText
 62
2
  6
CONTINUOUS
  7
TEXTSTYLE_2
 71
1
 72
1
 10
386.2017950139
 20
24.0007592282
 30
0.0
 11
1.0
 21
0.0
 31
0.0
 73
2
 44
0.9
  1
Листов
 40
3.0
 41
11.5257352941
  0
MTEXT
  5
279
100
AcDbEntity
  8
0
100
AcDbMText
 62
2
  6
CONTINUOUS
  7
TEXTSTYLE_2
 71
1
 72
1
 10
398.2017950139
 20
24.0007592282
 30
0.0
 11
1.0
 21
0.0
 31
0.0
 73
2
 44
0.9
  1
  1
 40
3.0
 41
4.9411764706
  0
MTEXT
  5
27A
100
AcDbEntity
  8
0
100
AcDbMText
 62
2
  6
CONTINUOUS
  7
STANDARD
 71
2
 72
1
 10
390.0017950139
 20
15.0007592282
 30
0.0
 11
1.0
 21
0.0
 31
0.0
 73
2
 44
0.9
  1
ЦМО
 40
5.0
 41
10.8455882353
  0
MTEXT
  5
27B
100
AcDbEntity
  8
0
100
AcDbMText
 62
2
  6
CONTINUOUS
  7
TEXTSTYLE_2
 71
1
 72
1
 10
231.2017950139
 20
14.0007592282
 30
0.0
 11
1.0
 21
0.0
 31
0.0
 73
2
 44
0.9
  1
Н.контр.
 40
3.0
 41
12.5294117647
  0
MTEXT
  5
27C
100
AcDbEntity
  8
0
100
AcDbMText
 62
2
  6
CONTINUOUS
  7
TEXTSTYLE_2
 71
1
 72
1
 10
231.2017950139
 20
9.0007592282
 30
0.0
 11
1.0
 21
0.0
 31
0.0
 73
2
 44
0.9
  1
Утв.
 40
3.0
 41
6.6948529412
  0
LINE
  5
27D
100
AcDbEntity
  8
0
100
AcDbLine
 62
2
  6
CONTINUOUS
 10
295.0017950139
 20
45.0007592282
 11
365.0017950139
 21
45.0007592282
  0
LINE
  5
27E
100
AcDbEntity
  8
0
100
AcDbLine
 62
2
  6
CONTINUOUS
 10
295.0017950139
 20
45.0007592282
 11
295.0017950139
 21
5.0007592282
  0
LINE
  5
27F
100
AcDbEntity
  8
0
100
AcDbLine
 62
2
  6
CONTINUOUS
 10
295.0017950139
 20
20.0007592282
 11
365.0017950139
 21
20.0007592282
  0
LINE
  5
280
100
AcDbEntity
  8
0
100
AcDbLine
 62
2
  6
CONTINUOUS
 10
295.0017950139
 20
5.0007592282
 11
365.0017950139
 21
5.0007592282
  0
LINE
  5
281
100
AcDbEntity
  8
0
100
AcDbLine
 62
2
  6
CONTINUOUS
 10
365.0017950139
 20
45.0007592282
 11
365.0017950139
 21
5.0007592282
  0
MTEXT
  5
282
100
AcDbEntity
  8
0
100
AcDbMText
 62
7
  6
CONTINUOUS
  7
STANDARD
 71
2
 72
1
 10
330.0017950139
 20
40.6382592282
 30
0.0
 11
1.0
 21
0.0
 31
0.0
 73
2
 44
0.78
  1
Комплект уплотнения \Pшкаф-пол \P\H3.5;Сборочный чертеж
 40
5.0
 41
61.1397058824
  0
LINE
  5
283
100
AcDbEntity
  8
0
100
AcDbLine
 62
2
  6
CONTINUOUS
 10
230.0041895116
 20
70.0028322039
 11
295.0041895116
 21
70.0028322039
  0
LINE
  5
284
100
AcDbEntity
  8
0
100
AcDbLine
 62
2
  6
CONTINUOUS
 10
230.0041895116
 20
70.0028322039
 11
230.0041895116
 21
60.0028322039
  0
LINE
  5
285
100
AcDbEntity
  8
0
100
AcDbLine
 62
2
  6
CONTINUOUS
 10
230.0041895116
 20
65.0028322039
 11
295.0041895116
 21
65.0028322039
  0
LINE
  5
286
100
AcDbEntity
  8
0
100
AcDbLine
 62
2
  6
CONTINUOUS
 10
230.0041895116
 20
60.0028322039
 11
295.0041895116
 21
60.0028322039
  0
LINE
  5
287
100
AcDbEntity
  8
0
100
AcDbLine
 62
2
  6
CONTINUOUS
 10
295.0041895116
 20
70.0028322039
 11
295.0041895116
 21
60.0028322039
  0
MTEXT
  5
288
100
AcDbEntity
  8
0
100
AcDbMText
 62
2
  6
CONTINUOUS
  7
STANDARD
 71
1
 72
1
 10
230.8041895116
 20
68.5028322039
 30
0.0
 11
1.0
 21
0.0
 31
0.0
 73
2
 44
0.9
  1
 Sпов. = 0,751 кв. м 
 40
2.0
 41
22.5661764706
  0
MTEXT
  5
289
100
AcDbEntity
  8
0
100
AcDbMText
 62
2
  6
CONTINUOUS
  7
STANDARD
 71
1
 72
1
 10
230.8041895116
 20
63.5028322039
 30
0.0
 11
1.0
 21
0.0
 31
0.0
 73
2
 44
0.9
  1
 Lсварки= 0,000 мм
 40
2.0
 41
20.8455882353
  0
LINE
  5
28A
100
AcDbEntity
  8
0
100
AcDbLine
 62
2
  6
CONTINUOUS
 10
-0.1001908397
 20
-6.5954198473
 11
441.4998091603
 21
-6.5954198473
  0
LINE
  5
28B
100
AcDbEntity
  8
0
100
AcDbLine
 62
2
  6
CONTINUOUS
 10
-0.1001908397
 20
-6.5954198473
 11
-0.1001908397
 21
-68.5954198473
  0
LINE
  5
28C
100
AcDbEntity
  8
0
100
AcDbLine
 62
2
  6
CONTINUOUS
 10
-0.1001908397
 20
-20.5954198473
 11
441.4998091603
 21
-20.5954198473
  0
LINE
  5
28D
100
AcDbEntity
  8
0
100
AcDbLine
 62
2
  6
CONTINUOUS
 10
-0.1001908397
 20
-28.5954198473
 11
441.4998091603
 21
-28.5954198473
  0
LINE
  5
28E
100
AcDbEntity
  8
0
100
AcDbLine
 62
2
  6
CONTINUOUS
 10
-0.1001908397
 20
-36.5954198473
 11
441.4998091603
 21
-36.5954198473
  0
LINE
  5
28F
100
AcDbEntity
  8
0
100
AcDbLine
 62
2
  6
CONTINUOUS
 10
-0.1001908397
 20
-44.5954198473
 11
441.4998091603
 21
-44.5954198473
  0
LINE
  5
290
100
AcDbEntity
  8
0
100
AcDbLine
 62
2
  6
CONTINUOUS
 10
-0.1001908397
 20
-52.5954198473
 11
441.4998091603
 21
-52.5954198473
  0
LINE
  5
291
100
AcDbEntity
  8
0
100
AcDbLine
 62
2
  6
CONTINUOUS
 10
-0.1001908397
 20
-60.5954198473
 11
441.4998091603
 21
-60.5954198473
  0
LINE
  5
292
100
AcDbEntity
  8
0
100
AcDbLine
 62
2
  6
CONTINUOUS
 10
-0.1001908397
 20
-68.5954198473
 11
441.4998091603
 21
-68.5954198473
  0
LINE
  5
293
100
AcDbEntity
  8
0
100
AcDbLine
 62
2
  6
CONTINUOUS
 10
73.4998091603
 20
-6.5954198473
 11
73.4998091603
 21
-68.5954198473
  0
LINE
  5
294
100
AcDbEntity
  8
0
100
AcDbLine
 62
2
  6
CONTINUOUS
 10
147.0998091603
 20
-6.5954198473
 11
147.0998091603
 21
-68.5954198473
  0
LINE
  5
295
100
AcDbEntity
  8
0
100
AcDbLine
 62
2
  6
CONTINUOUS
 10
220.6998091603
 20
-6.5954198473
 11
220.6998091603
 21
-68.5954198473
  0
LINE
  5
296
100
AcDbEntity
  8
0
100
AcDbLine
 62
2
  6
CONTINUOUS
 10
294.2998091603
 20
-6.5954198473
 11
294.2998091603
 21
-68.5954198473
  0
LINE
  5
297
100
AcDbEntity
  8
0
100
AcDbLine
 62
2
  6
CONTINUOUS
 10
367.8998091603
 20
-6.5954198473
 11
367.8998091603
 21
-68.5954198473
  0
LINE
  5
298
100
AcDbEntity
  8
0
100
AcDbLine
 62
2
  6
CONTINUOUS
 10
441.4998091603
 20
-6.5954198473
 11
441.4998091603
 21
-68.5954198473
  0
MTEXT
  5
299
100
AcDbEntity
  8
0
100
AcDbMText
 62
2
  6
CONTINUOUS
  7
STANDARD
 71
1
 72
1
 10
75.0998091603
 20
-8.5954198473
 30
0.0
 11
1.0
 21
0.0
 31
0.0
 73
2
 44
0.9
  1
A_305351_133_POL_STK_
 40
4.0
 41
49.5588235294
  0
MTEXT
  5
29A
100
AcDbEntity
  8
0
100
AcDbMText
 62
2
  6
CONTINUOUS
  7
STANDARD
 71
1
 72
1
 10
148.6998091603
 20
-8.5954198473
 30
0.0
 11
1.0
 21
0.0
 31
0.0
 73
2
 44
0.9
  1
MASS
 40
4.0
 41
11.2794117647
  0
MTEXT
  5
29B
100
AcDbEntity
  8
0
100
AcDbMText
 62
2
  6
CONTINUOUS
  7
STANDARD
 71
1
 72
1
 10
222.2998091603
 20
-8.5954198473
 30
0.0
 11
1.0
 21
0.0
 31
0.0
 73
2
 44
0.9
  1
NAIMENOVANIE
 40
4.0
 41
28.6617647059
  0
MTEXT
  5
29C
100
AcDbEntity
  8
0
100
AcDbMText
 62
2
  6
CONTINUOUS
  7
STANDARD
 71
1
 72
1
 10
295.8998091603
 20
-8.5954198473
 30
0.0
 11
1.0
 21
0.0
 31
0.0
 73
2
 44
0.9
  1
OBOZNACHENIE
 40
4.0
 41
28.9558823529
  0
MTEXT
  5
29D
100
AcDbEntity
  8
0
100
AcDbMText
 62
2
  6
CONTINUOUS
  7
STANDARD
 71
1
 72
1
 10
369.4998091603
 20
-8.5954198473
 30
0.0
 11
1.0
 21
0.0
 31
0.0
 73
2
 44
0.9
  1
P_321313_262_03_KOROBKA_
 40
4.0
 41
58.5147058824
  0
MTEXT
  5
29E
100
AcDbEntity
  8
0
100
AcDbMText
 62
2
  6
CONTINUOUS
  7
STANDARD
 71
1
 72
1
 10
75.0998091603
 20
-22.5954198473
 30
0.0
 11
1.0
 21
0.0
 31
0.0
 73
2
 44
0.9
  1
A_305351_133_POL_STK_300
 40
4.0
 41
57.0882352941
  0
MTEXT
  5
29F
100
AcDbEntity
  8
0
100
AcDbMText
 62
2
  6
CONTINUOUS
  7
STANDARD
 71
1
 72
1
 10
148.6998091603
 20
-22.5954198473
 30
0.0
 11
1.0
 21
0.0
 31
0.0
 73
2
 44
0.9
  1
0,268
 40
4.0
 41
11.2352941176
  0
MTEXT
  5
2A0
100
AcDbEntity
  8
0
100
AcDbMText
 62
2
  6
CONTINUOUS
  7
STANDARD
 71
1
 72
1
 10
222.2998091603
 20
-22.5954198473
 30
0.0
 11
1.0
 21
0.0
 31
0.0
 73
2
 44
0.9
  1
60A-53-70-91BL Комплект уплотнения шкаф-пол 300
 40
4.0
 41
115.4705882353
  0
MTEXT
  5
2A1
100
AcDbEntity
  8
0
100
AcDbMText
 62
2
  6
CONTINUOUS
  7
STANDARD
 71
1
 72
1
 10
295.8998091603
 20
-22.5954198473
 30
0.0
 11
1.0
 21
0.0
 31
0.0
 73
2
 44
0.9
  1
301351.104-01
 40
4.0
 41
27.4705882353
  0
MTEXT
  5
2A2
100
AcDbEntity
  8
0
100
AcDbMText
 62
2
  6
CONTINUOUS
  7
STANDARD
 71
1
 72
1
 10
369.4998091603
 20
-22.5954198473
 30
0.0
 11
1.0
 21
0.0
 31
0.0
 73
2
 44
0.9
  1
P_321313_262_01_KOROBKA_.PRT
 40
4.0
 41
66.5588235294
  0
MTEXT
  5
2A3
100
AcDbEntity
  8
0
100
AcDbMText
 62
2
  6
CONTINUOUS
  7
STANDARD
 71
1
 72
1
 10
75.0998091603
 20
-30.5954198473
 30
0.0
 11
1.0
 21
0.0
 31
0.0
 73
2
 44
0.9
  1
A_305351_133_POL_STK_600
 40
4.0
 41
57.3676470588
  0
MTEXT
  5
2A4
100
AcDbEntity
  8
0
100
AcDbMText
 62
2
  6
CONTINUOUS
  7
STANDARD
 71
1
 72
1
 10
148.6998091603
 20
-30.5954198473
 30
0.0
 11
1.0
 21
0.0
 31
0.0
 73
2
 44
0.9
  1
0,530
 40
4.0
 41
10.6764705882
  0
MTEXT
  5
2A5
100
AcDbEntity
  8
0
100
AcDbMText
 62
2
  6
CONTINUOUS
  7
STANDARD
 71
1
 72
1
 10
222.2998091603
 20
-30.5954198473
 30
0.0
 11
1.0
 21
0.0
 31
0.0
 73
2
 44
0.9
  1
60A-53-71-91BL Комплект уплотнения шкаф-пол 600 мм
 40
4.0
 41
122.5147058824
  0
MTEXT
  5
2A6
100
AcDbEntity
  8
0
100
AcDbMText
 62
2
  6
CONTINUOUS
  7
STANDARD
 71
1
 72
1
 10
295.8998091603
 20
-30.5954198473
 30
0.0
 11
1.0
 21
0.0
 31
0.0
 73
2
 44
0.9
  1
301351.104-02
 40
4.0
 41
28.3382352941
  0
MTEXT
  5
2A7
100
AcDbEntity
  8
0
100
AcDbMText
 62
2
  6
CONTINUOUS
  7
STANDARD
 71
1
 72
1
 10
369.4998091603
 20
-30.5954198473
 30
0.0
 11
1.0
 21
0.0
 31
0.0
 73
2
 44
0.9
  1
P_321313_262_02_KOROBKA_.PRT
 40
4.0
 41
67.4264705882
  0
MTEXT
  5
2A8
100
AcDbEntity
  8
0
100
AcDbMText
 62
2
  6
CONTINUOUS
  7
STANDARD
 71
1
 72
1
 10
75.0998091603
 20
-38.5954198473
 30
0.0
 11
1.0
 21
0.0
 31
0.0
 73
2
 44
0.9
  1
A_305351_133_POL_STK_700
 40
4.0
 41
57.3676470588
  0
MTEXT
  5
2A9
100
AcDbEntity
  8
0
100
AcDbMText
 62
2
  6
CONTINUOUS
  7
STANDARD
 71
1
 72
1
 10
148.6998091603
 20
-38.5954198473
 30
0.0
 11
1.0
 21
0.0
 31
0.0
 73
2
 44
0.9
  1
0,626
 40
4.0
 41
11.2352941176
  0
MTEXT
  5
2AA
100
AcDbEntity
  8
0
100
AcDbMText
 62
2
  6
CONTINUOUS
  7
STANDARD
 71
1
 72
1
 10
222.2998091603
 20
-38.5954198473
 30
0.0
 11
1.0
 21
0.0
 31
0.0
 73
2
 44
0.9
  1
60A-53-72-91BL Комплект уплотнения шкаф-пол 700 мм
 40
4.0
 41
123.3823529412
  0
MTEXT
  5
2AB
100
AcDbEntity
  8
0
100
AcDbMText
 62
2
  6
CONTINUOUS
  7
STANDARD
 71
1
 72
1
 10
295.8998091603
 20
-38.5954198473
 30
0.0
 11
1.0
 21
0.0
 31
0.0
 73
2
 44
0.9
  1
301351.104-03
 40
4.0
 41
28.0588235294
  0
MTEXT
  5
2AC
100
AcDbEntity
  8
0
100
AcDbMText
 62
2
  6
CONTINUOUS
  7
STANDARD
 71
1
 72
1
 10
369.4998091603
 20
-38.5954198473
 30
0.0
 11
1.0
 21
0.0
 31
0.0
 73
2
 44
0.9
  1
P_321313_262_03_KOROBKA_.PRT
 40
4.0
 41
67.1470588235
  0
MTEXT
  5
2AD
100
AcDbEntity
  8
0
100
AcDbMText
 62
2
  6
CONTINUOUS
  7
STANDARD
 71
1
 72
1
 10
75.0998091603
 20
-46.5954198473
 30
0.0
 11
1.0
 21
0.0
 31
0.0
 73
2
 44
0.9
  1
A_305351_133_POL_STK_750
 40
4.0
 41
57.0882352941
  0
MTEXT
  5
2AE
100
AcDbEntity
  8
0
100
AcDbMText
 62
2
  6
CONTINUOUS
  7
STANDARD
 71
1
 72
1
 10
148.6998091603
 20
-46.5954198473
 30
0.0
 11
1.0
 21
0.0
 31
0.0
 73
2
 44
0.9
  1
0,665
 40
4.0
 41
10.9558823529
  0
MTEXT
  5
2AF
100
AcDbEntity
  8
0
100
AcDbMText
 62
2
  6
CONTINUOUS
  7
STANDARD
 71
1
 72
1
 10
222.2998091603
 20
-46.5954198473
 30
0.0
 11
1.0
 21
0.0
 31
0.0
 73
2
 44
0.9
  1
60A-53-73-91BL Комплект уплотнения шкаф-пол 750 мм
 40
4.0
 41
122.8235294118
  0
MTEXT
  5
2B0
100
AcDbEntity
  8
0
100
AcDbMText
 62
2
  6
CONTINUOUS
  7
STANDARD
 71
1
 72
1
 10
295.8998091603
 20
-46.5954198473
 30
0.0
 11
1.0
 21
0.0
 31
0.0
 73
2
 44
0.9
  1
301351.104-04
 40
4.0
 41
28.3382352941
  0
MTEXT
  5
2B1
100
AcDbEntity
  8
0
100
AcDbMText
 62
2
  6
CONTINUOUS
  7
STANDARD
 71
1
 72
1
 10
369.4998091603
 20
-46.5954198473
 30
0.0
 11
1.0
 21
0.0
 31
0.0
 73
2
 44
0.9
  1
P_321313_262_03_KOROBKA_.PRT
 40
4.0
 41
67.1470588235
  0
MTEXT
  5
2B2
100
AcDbEntity
  8
0
100
AcDbMText
 62
2
  6
CONTINUOUS
  7
STANDARD
 71
1
 72
1
 10
75.0998091603
 20
-54.5954198473
 30
0.0
 11
1.0
 21
0.0
 31
0.0
 73
2
 44
0.9
  1
A_305351_133_POL_STK_800
 40
4.0
 41
57.3676470588
  0
MTEXT
  5
2B3
100
AcDbEntity
  8
0
100
AcDbMText
 62
2
  6
CONTINUOUS
  7
STANDARD
 71
1
 72
1
 10
148.6998091603
 20
-54.5954198473
 30
0.0
 11
1.0
 21
0.0
 31
0.0
 73
2
 44
0.9
  1
0,704
 40
4.0
 41
11.2352941176
  0
MTEXT
  5
2B4
100
AcDbEntity
  8
0
100
AcDbMText
 62
2
  6
CONTINUOUS
  7
STANDARD
 71
1
 72
1
 10
222.2998091603
 20
-54.5954198473
 30
0.0
 11
1.0
 21
0.0
 31
0.0
 73
2
 44
0.9
  1
60A-53-74-91BL Комплект уплотнения шкаф-пол 800 мм
 40
4.0
 41
123.3823529412
  0
MTEXT
  5
2B5
100
AcDbEntity
  8
0
100
AcDbMText
 62
2
  6
CONTINUOUS
  7
STANDARD
 71
1
 72
1
 10
295.8998091603
 20
-54.5954198473
 30
0.0
 11
1.0
 21
0.0
 31
0.0
 73
2
 44
0.9
  1
301351.104-05
 40
4.0
 41
28.0588235294
  0
MTEXT
  5
2B6
100
AcDbEntity
  8
0
100
AcDbMText
 62
2
  6
CONTINUOUS
  7
STANDARD
 71
1
 72
1
 10
369.4998091603
 20
-54.5954198473
 30
0.0
 11
1.0
 21
0.0
 31
0.0
 73
2
 44
0.9
  1
P_321313_262_03_KOROBKA_.PRT
 40
4.0
 41
67.1470588235
  0
MTEXT
  5
2B7
100
AcDbEntity
  8
0
100
AcDbMText
 62
2
  6
CONTINUOUS
  7
STANDARD
 71
1
 72
1
 10
75.0998091603
 20
-62.5954198473
 30
0.0
 11
1.0
 21
0.0
 31
0.0
 73
2
 44
0.9
  1
A_305351_133_POL_STK_1000
 40
4.0
 41
59.1029411765
  0
MTEXT
  5
2B8
100
AcDbEntity
  8
0
100
AcDbMText
 62
2
  6
CONTINUOUS
  7
STANDARD
 71
1
 72
1
 10
148.6998091603
 20
-62.5954198473
 30
0.0
 11
1.0
 21
0.0
 31
0.0
 73
2
 44
0.9
  1
0,879
 40
4.0
 41
11.2352941176
  0
MTEXT
  5
2B9
100
AcDbEntity
  8
0
100
AcDbMText
 62
2
  6
CONTINUOUS
  7
STANDARD
 71
1
 72
1
 10
222.2998091603
 20
-62.5954198473
 30
0.0
 11
1.0
 21
0.0
 31
0.0
 73
2
 44
0.9
  1
60A-53-75-91BL Комплект уплотнения шкаф-пол 1000 мм
 40
4.0
 41
124.8382352941
  0
MTEXT
  5
2BA
100
AcDbEntity
  8
0
100
AcDbMText
 62
2
  6
CONTINUOUS
  7
STANDARD
 71
1
 72
1
 10
295.8998091603
 20
-62.5954198473
 30
0.0
 11
1.0
 21
0.0
 31
0.0
 73
2
 44
0.9
  1
301351.104-06
 40
4.0
 41
28.3382352941
  0
MTEXT
  5
2BB
100
AcDbEntity
  8
0
100
AcDbMText
 62
2
  6
CONTINUOUS
  7
STANDARD
 71
1
 72
1
 10
369.4998091603
 20
-62.5954198473
 30
0.0
 11
1.0
 21
0.0
 31
0.0
 73
2
 44
0.9
  1
P_321313_262_04_KOROBKA_.PRT
 40
4.0
 41
67.4264705882
  0
LINE
  5
2BC
100
AcDbEntity
  8
0
100
AcDbLine
 62
2
  6
CONTINUOUS
 10
110.0234335863
 20
194.7241377736
 11
345.0234335863
 21
194.7241377736
  0
LINE
  5
2BD
100
AcDbEntity
  8
0
100
AcDbLine
 62
2
  6
CONTINUOUS
 10
110.0234335863
 20
194.7241377736
 11
110.0234335863
 21
132.7241377736
  0
LINE
  5
2BE
100
AcDbEntity
  8
0
100
AcDbLine
 62
2
  6
CONTINUOUS
 10
110.0234335863
 20
180.7241377736
 11
345.0234335863
 21
180.7241377736
  0
LINE
  5
2BF
100
AcDbEntity
  8
0
100
AcDbLine
 62
2
  6
CONTINUOUS
 10
110.0234335863
 20
172.7241377736
 11
345.0234335863
 21
172.7241377736
  0
LINE
  5
2C0
100
AcDbEntity
  8
0
100
AcDbLine
 62
2
  6
CONTINUOUS
 10
110.0234335863
 20
164.7241377736
 11
345.0234335863
 21
164.7241377736
  0
LINE
  5
2C1
100
AcDbEntity
  8
0
100
AcDbLine
 62
2
  6
CONTINUOUS
 10
110.0234335863
 20
156.7241377736
 11
345.0234335863
 21
156.7241377736
  0
LINE
  5
2C2
100
AcDbEntity
  8
0
100
AcDbLine
 62
2
  6
CONTINUOUS
 10
110.0234335863
 20
148.7241377736
 11
345.0234335863
 21
148.7241377736
  0
LINE
  5
2C3
100
AcDbEntity
  8
0
100
AcDbLine
 62
2
  6
CONTINUOUS
 10
110.0234335863
 20
140.7241377736
 11
345.0234335863
 21
140.7241377736
  0
LINE
  5
2C4
100
AcDbEntity
  8
0
100
AcDbLine
 62
2
  6
CONTINUOUS
 10
110.0234335863
 20
132.7241377736
 11
345.0234335863
 21
132.7241377736
  0
LINE
  5
2C5
100
AcDbEntity
  8
0
100
AcDbLine
 62
2
  6
CONTINUOUS
 10
130.0234335863
 20
194.7241377736
 11
130.0234335863
 21
132.7241377736
  0
LINE
  5
2C6
100
AcDbEntity
  8
0
100
AcDbLine
 62
2
  6
CONTINUOUS
 10
260.0234335863
 20
194.7241377736
 11
260.0234335863
 21
132.7241377736
  0
LINE
  5
2C7
100
AcDbEntity
  8
0
100
AcDbLine
 62
2
  6
CONTINUOUS
 10
300.0234335863
 20
194.7241377736
 11
300.0234335863
 21
132.7241377736
  0
LINE
  5
2C8
100
AcDbEntity
  8
0
100
AcDbLine
 62
2
  6
CONTINUOUS
 10
345.0234335863
 20
194.7241377736
 11
345.0234335863
 21
132.7241377736
  0
MTEXT
  5
2C9
100
AcDbEntity
  8
0
100
AcDbMText
 62
2
  6
CONTINUOUS
  7
TEXTSTYLE_4
 71
1
 72
1
 10
111.6234335863
 20
192.7241377736
 30
0.0
 11
1.0
 21
0.0
 31
0.0
 73
2
 44
0.9
  1
Mасса
 40
4.0
 41
12.4705882353
  0
MTEXT
  5
2CA
100
AcDbEntity
  8
0
100
AcDbMText
 62
2
  6
CONTINUOUS
  7
TEXTSTYLE_4
 71
1
 72
1
 10
131.6234335863
 20
192.7241377736
 30
0.0
 11
1.0
 21
0.0
 31
0.0
 73
2
 44
0.9
  1
Наименование
 40
4.0
 41
28.4117647059
  0
MTEXT
  5
2CB
100
AcDbEntity
  8
0
100
AcDbMText
 62
2
  6
CONTINUOUS
  7
TEXTSTYLE_4
 71
1
 72
1
 10
261.6234335863
 20
192.7241377736
 30
0.0
 11
1.0
 21
0.0
 31
0.0
 73
2
 44
0.9
  1
Исполнение
 40
4.0
 41
23.4852941176
  0
MTEXT
  5
2CC
100
AcDbEntity
  8
0
100
AcDbMText
 62
2
  6
CONTINUOUS
  7
TEXTSTYLE_4
 71
1
 72
1
 10
301.6234335863
 20
192.7241377736
 30
0.0
 11
1.0
 21
0.0
 31
0.0
 73
2
 44
0.9
  1
Размеры упаковки
 40
4.0
 41
37.9558823529
  0
MTEXT
  5
2CD
100
AcDbEntity
  8
0
100
AcDbMText
 62
2
  6
CONTINUOUS
  7
TEXTSTYLE_4
 71
1
 72
1
 10
111.6234335863
 20
178.7241377736
 30
0.0
 11
1.0
 21
0.0
 31
0.0
 73
2
 44
0.9
  1
0,268
 40
4.0
 41
11.2352941176
  0
MTEXT
  5
2CE
100
AcDbEntity
  8
0
100
AcDbMText
 62
2
  6
CONTINUOUS
  7
TEXTSTYLE_4
 71
1
 72
1
 10
131.6234335863
 20
178.7241377736
 30
0.0
 11
1.0
 21
0.0
 31
0.0
 73
2
 44
0.9
  1
60A-53-70-91BL Комплект уплотнения шкаф-пол 300 мм
 40
4.0
 41
123.1029411765
  0
MTEXT
  5
2CF
100
AcDbEntity
  8
0
100
AcDbMText
 62
2
  6
CONTINUOUS
  7
TEXTSTYLE_4
 71
1
 72
1
 10
261.6234335863
 20
178.7241377736
 30
0.0
 11
1.0
 21
0.0
 31
0.0
 73
2
 44
0.9
  1
301351.104-01
 40
4.0
 41
27.4705882353
  0
MTEXT
  5
2D0
100
AcDbEntity
  8
0
100
AcDbMText
 62
2
  6
CONTINUOUS
  7
STANDARD
 71
1
 72
1
 10
301.6234335863
 20
178.7241377736
 30
0.0
 11
1.0
 21
0.0
 31
0.0
 73
2
 44
0.9
  1
75х75х320
 40
4.0
 41
22.0294117647
  0
MTEXT
  5
2D1
100
AcDbEntity
  8
0
100
AcDbMText
 62
2
  6
CONTINUOUS
  7
TEXTSTYLE_4
 71
1
 72
1
 10
111.6234335863
 20
170.7241377736
 30
0.0
 11
1.0
 21
0.0
 31
0.0
 73
2
 44
0.9
  1
0,530
 40
4.0
 41
10.6764705882
  0
MTEXT
  5
2D2
100
AcDbEntity
  8
0
100
AcDbMText
 62
2
  6
CONTINUOUS
  7
TEXTSTYLE_4
 71
1
 72
1
 10
131.6234335863
 20
170.7241377736
 30
0.0
 11
1.0
 21
0.0
 31
0.0
 73
2
 44
0.9
  1
60A-53-71-91BL Комплект уплотнения шкаф-пол 600 мм
 40
4.0
 41
122.5147058824
  0
MTEXT
  5
2D3
100
AcDbEntity
  8
0
100
AcDbMText
 62
2
  6
CONTINUOUS
  7
TEXTSTYLE_4
 71
1
 72
1
 10
261.6234335863
 20
170.7241377736
 30
0.0
 11
1.0
 21
0.0
 31
0.0
 73
2
 44
0.9
  1
301351.104-02
 40
4.0
 41
28.3382352941
  0
MTEXT
  5
2D4
100
AcDbEntity
  8
0
100
AcDbMText
 62
2
  6
CONTINUOUS
  7
STANDARD
 71
1
 72
1
 10
301.6234335863
 20
170.7241377736
 30
0.0
 11
1.0
 21
0.0
 31
0.0
 73
2
 44
0.9
  1
75х75х620
 40
4.0
 41
22.3088235294
  0
MTEXT
  5
2D5
100
AcDbEntity
  8
0
100
AcDbMText
 62
2
  6
CONTINUOUS
  7
TEXTSTYLE_4
 71
1
 72
1
 10
111.6234335863
 20
162.7241377736
 30
0.0
 11
1.0
 21
0.0
 31
0.0
 73
2
 44
0.9
  1
0,626
 40
4.0
 41
11.2352941176
  0
MTEXT
  5
2D6
100
AcDbEntity
  8
0
100
AcDbMText
 62
2
  6
CONTINUOUS
  7
TEXTSTYLE_4
 71
1
 72
1
 10
131.6234335863
 20
162.7241377736
 30
0.0
 11
1.0
 21
0.0
 31
0.0
 73
2
 44
0.9
  1
60A-53-72-91BL Комплект уплотнения шкаф-пол 700 мм
 40
4.0
 41
123.3823529412
  0
MTEXT
  5
2D7
100
AcDbEntity
  8
0
100
AcDbMText
 62
2
  6
CONTINUOUS
  7
TEXTSTYLE_4
 71
1
 72
1
 10
261.6234335863
 20
162.7241377736
 30
0.0
 11
1.0
 21
0.0
 31
0.0
 73
2
 44
0.9
  1
301351.104-03
 40
4.0
 41
28.0588235294
  0
MTEXT
  5
2D8
100
AcDbEntity
  8
0
100
AcDbMText
 62
2
  6
CONTINUOUS
  7
STANDARD
 71
1
 72
1
 10
301.6234335863
 20
162.7241377736
 30
0.0
 11
1.0
 21
0.0
 31
0.0
 73
2
 44
0.9
  1
75х75х720
 40
4.0
 41
22.3088235294
  0
MTEXT
  5
2D9
100
AcDbEntity
  8
0
100
AcDbMText
 62
2
  6
CONTINUOUS
  7
TEXTSTYLE_4
 71
1
 72
1
 10
111.6234335863
 20
154.7241377736
 30
0.0
 11
1.0
 21
0.0
 31
0.0
 73
2
 44
0.9
  1
0,665
 40
4.0
 41
10.9558823529
  0
MTEXT
  5
2DA
100
AcDbEntity
  8
0
100
AcDbMText
 62
2
  6
CONTINUOUS
  7
TEXTSTYLE_4
 71
1
 72
1
 10
131.6234335863
 20
154.7241377736
 30
0.0
 11
1.0
 21
0.0
 31
0.0
 73
2
 44
0.9
  1
60A-53-73-91BL Комплект уплотнения шкаф-пол 750 мм
 40
4.0
 41
122.8235294118
  0
MTEXT
  5
2DB
100
AcDbEntity
  8
0
100
AcDbMText
 62
2
  6
CONTINUOUS
  7
TEXTSTYLE_4
 71
1
 72
1
 10
261.6234335863
 20
154.7241377736
 30
0.0
 11
1.0
 21
0.0
 31
0.0
 73
2
 44
0.9
  1
301351.104-04
 40
4.0
 41
28.3382352941
  0
MTEXT
  5
2DC
100
AcDbEntity
  8
0
100
AcDbMText
 62
2
  6
CONTINUOUS
  7
STANDARD
 71
1
 72
1
 10
301.6234335863
 20
154.7241377736
 30
0.0
 11
1.0
 21
0.0
 31
0.0
 73
2
 44
0.9
  1
75х75х770
 40
4.0
 41
22.3088235294
  0
MTEXT
  5
2DD
100
AcDbEntity
  8
0
100
AcDbMText
 62
2
  6
CONTINUOUS
  7
TEXTSTYLE_4
 71
1
 72
1
 10
111.6234335863
 20
146.7241377736
 30
0.0
 11
1.0
 21
0.0
 31
0.0
 73
2
 44
0.9
  1
0,704
 40
4.0
 41
11.2352941176
  0
MTEXT
  5
2DE
100
AcDbEntity
  8
0
100
AcDbMText
 62
2
  6
CONTINUOUS
  7
TEXTSTYLE_4
 71
1
 72
1
 10
131.6234335863
 20
146.7241377736
 30
0.0
 11
1.0
 21
0.0
 31
0.0
 73
2
 44
0.9
  1
60A-53-74-91BL Комплект уплотнения шкаф-пол 800 мм
 40
4.0
 41
123.3823529412
  0
MTEXT
  5
2DF
100
AcDbEntity
  8
0
100
AcDbMText
 62
2
  6
CONTINUOUS
  7
TEXTSTYLE_4
 71
1
 72
1
 10
261.6234335863
 20
146.7241377736
 30
0.0
 11
1.0
 21
0.0
 31
0.0
 73
2
 44
0.9
  1
301351.104-05
 40
4.0
 41
28.0588235294
  0
MTEXT
  5
2E0
100
AcDbEntity
  8
0
100
AcDbMText
 62
2
  6
CONTINUOUS
  7
STANDARD
 71
1
 72
1
 10
301.6234335863
 20
146.7241377736
 30
0.0
 11
1.0
 21
0.0
 31
0.0
 73
2
 44
0.9
  1
75х75х820
 40
4.0
 41
22.3088235294
  0
MTEXT
  5
2E1
100
AcDbEntity
  8
0
100
AcDbMText
 62
2
  6
CONTINUOUS
  7
TEXTSTYLE_4
 71
1
 72
1
 10
111.6234335863
 20
138.7241377736
 30
0.0
 11
1.0
 21
0.0
 31
0.0
 73
2
 44
0.9
  1
0,879
 40
4.0
 41
11.2352941176
  0
MTEXT
  5
2E2
100
AcDbEntity
  8
0
100
AcDbMText
 62
2
  6
CONTINUOUS
  7
TEXTSTYLE_4
 71
1
 72
1
 10
131.6234335863
 20
138.7241377736
 30
0.0
 11
1.0
 21
0.0
 31
0.0
 73
2
 44
0.9
  1
60A-53-75-91BL Комплект уплотнения шкаф-пол 1000 мм
 40
4.0
 41
124.8382352941
  0
MTEXT
  5
2E3
100
AcDbEntity
  8
0
100
AcDbMText
 62
2
  6
CONTINUOUS
  7
TEXTSTYLE_4
 71
1
 72
1
 10
261.6234335863
 20
138.7241377736
 30
0.0
 11
1.0
 21
0.0
 31
0.0
 73
2
 44
0.9
  1
301351.104-06
 40
4.0
 41
28.3382352941
  0
MTEXT
  5
2E4
100
AcDbEntity
  8
0
100
AcDbMText
 62
2
  6
CONTINUOUS
  7
STANDARD
 71
1
 72
1
 10
301.6234335863
 20
138.7241377736
 30
0.0
 11
1.0
 21
0.0
 31
0.0
 73
2
 44
0.9
  1
75х75х1020
 40
4.0
 41
24.0441176471
  0
LINE
  5
2E5
100
AcDbEntity
  8
0
100
AcDbLine
 62
2
  6
CONTINUOUS
 10
424.9036614012
 20
296.0569532853
 11
602.9036614012
 21
296.0569532853
  0
LINE
  5
2E6
100
AcDbEntity
  8
0
100
AcDbLine
 62
2
  6
CONTINUOUS
 10
424.9036614012
 20
296.0569532853
 11
424.9036614012
 21
169.0569532853
  0
LINE
  5
2E7
100
AcDbEntity
  8
0
100
AcDbLine
 62
2
  6
CONTINUOUS
 10
424.9036614012
 20
281.0569532853
 11
602.9036614012
 21
281.0569532853
  0
LINE
  5
2E8
100
AcDbEntity
  8
0
100
AcDbLine
 62
2
  6
CONTINUOUS
 10
424.9036614012
 20
273.0569532853
 11
602.9036614012
 21
273.0569532853
  0
LINE
  5
2E9
100
AcDbEntity
  8
0
100
AcDbLine
 62
2
  6
CONTINUOUS
 10
424.9036614012
 20
265.0569532853
 11
602.9036614012
 21
265.0569532853
  0
LINE
  5
2EA
100
AcDbEntity
  8
0
100
AcDbLine
 62
2
  6
CONTINUOUS
 10
424.9036614012
 20
257.0569532853
 11
602.9036614012
 21
257.0569532853
  0
LINE
  5
2EB
100
AcDbEntity
  8
0
100
AcDbLine
 62
2
  6
CONTINUOUS
 10
424.9036614012
 20
249.0569532853
 11
602.9036614012
 21
249.0569532853
  0
LINE
  5
2EC
100
AcDbEntity
  8
0
100
AcDbLine
 62
2
  6
CONTINUOUS
 10
424.9036614012
 20
241.0569532853
 11
602.9036614012
 21
241.0569532853
  0
LINE
  5
2ED
100
AcDbEntity
  8
0
100
AcDbLine
 62
2
  6
CONTINUOUS
 10
424.9036614012
 20
233.0569532853
 11
602.9036614012
 21
233.0569532853
  0
LINE
  5
2EE
100
AcDbEntity
  8
0
100
AcDbLine
 62
2
  6
CONTINUOUS
 10
424.9036614012
 20
225.0569532853
 11
602.9036614012
 21
225.0569532853
  0
LINE
  5
2EF
100
AcDbEntity
  8
0
100
AcDbLine
 62
2
  6
CONTINUOUS
 10
424.9036614012
 20
217.0569532853
 11
602.9036614012
 21
217.0569532853
  0
LINE
  5
2F0
100
AcDbEntity
  8
0
100
AcDbLine
 62
2
  6
CONTINUOUS
 10
424.9036614012
 20
209.0569532853
 11
602.9036614012
 21
209.0569532853
  0
LINE
  5
2F1
100
AcDbEntity
  8
0
100
AcDbLine
 62
2
  6
CONTINUOUS
 10
424.9036614012
 20
201.0569532853
 11
602.9036614012
 21
201.0569532853
  0
LINE
  5
2F2
100
AcDbEntity
  8
0
100
AcDbLine
 62
2
  6
CONTINUOUS
 10
424.9036614012
 20
193.0569532853
 11
602.9036614012
 21
193.0569532853
  0
LINE
  5
2F3
100
AcDbEntity
  8
0
100
AcDbLine
 62
2
  6
CONTINUOUS
 10
424.9036614012
 20
185.0569532853
 11
602.9036614012
 21
185.0569532853
  0
LINE
  5
2F4
100
AcDbEntity
  8
0
100
AcDbLine
 62
2
  6
CONTINUOUS
 10
424.9036614012
 20
177.0569532853
 11
602.9036614012
 21
177.0569532853
  0
LINE
  5
2F5
100
AcDbEntity
  8
0
100
AcDbLine
 62
2
  6
CONTINUOUS
 10
424.9036614012
 20
169.0569532853
 11
602.9036614012
 21
169.0569532853
  0
LINE
  5
2F6
100
AcDbEntity
  8
0
100
AcDbLine
 62
2
  6
CONTINUOUS
 10
432.9036614012
 20
296.0569532853
 11
432.9036614012
 21
169.0569532853
  0
LINE
  5
2F7
100
AcDbEntity
  8
0
100
AcDbLine
 62
2
  6
CONTINUOUS
 10
472.9036614012
 20
296.0569532853
 11
472.9036614012
 21
169.0569532853
  0
LINE
  5
2F8
100
AcDbEntity
  8
0
100
AcDbLine
 62
2
  6
CONTINUOUS
 10
592.9036614012
 20
296.0569532853
 11
592.9036614012
 21
169.0569532853
  0
LINE
  5
2F9
100
AcDbEntity
  8
0
100
AcDbLine
 62
2
  6
CONTINUOUS
 10
602.9036614012
 20
296.0569532853
 11
602.9036614012
 21
169.0569532853
  0
MTEXT
  5
2FA
100
AcDbEntity
  8
0
100
AcDbMText
 62
2
  6
CONTINUOUS
  7
TEXTSTYLE_2
 71
2
 72
1
 10
426.6536614012
 20
288.5569532853
 30
0.0
 11
0.0
 21
1.0
 31
0.0
 73
2
 44
0.9
  1
Поз.
 40
3.0
 41
5.9338235294
  0
MTEXT
  5
2FB
100
AcDbEntity
  8
0
100
AcDbMText
 62
2
  6
CONTINUOUS
  7
TEXTSTYLE_2
 71
2
 72
1
 10
452.9036614012
 20
290.8069532853
 30
0.0
 11
1.0
 21
0.0
 31
0.0
 73
2
 44
0.9
  1
Обозначение
 40
4.5
 41
28.8529411765
  0
MTEXT
  5
2FC
100
AcDbEntity
  8
0
100
AcDbMText
 62
2
  6
CONTINUOUS
  7
TEXTSTYLE_2
 71
2
 72
1
 10
532.9036614012
 20
290.8069532853
 30
0.0
 11
1.0
 21
0.0
 31
0.0
 73
2
 44
0.9
  1
Наименование
 40
4.5
 41
31.9632352941
  0
MTEXT
  5
2FD
100
AcDbEntity
  8
0
100
AcDbMText
 62
2
  6
CONTINUOUS
  7
TEXTSTYLE_2
 71
2
 72
1
 10
595.6536614012
 20
288.5569532853
 30
0.0
 11
0.0
 21
1.0
 31
0.0
 73
2
 44
0.9
  1
Кол.
 40
3.0
 41
6.0551470588
  0
MTEXT
  5
2FE
100
AcDbEntity
  8
0
100
AcDbMText
 62
2
  6
CONTINUOUS
  7
TEXTSTYLE_2
 71
2
 72
1
 10
532.9036614012
 20
278.8069532853
 30
0.0
 11
1.0
 21
0.0
 31
0.0
 73
2
 44
0.9
  1
Документация
 40
3.5
 41
26.1213235294
  0
MTEXT
  5
2FF
100
AcDbEntity
  8
0
100
AcDbMText
 62
2
  6
CONTINUOUS
  7
TEXTSTYLE_2
 71
1
 72
1
 10
432.9661614012
 20
270.8069532853
 30
0.0
 11
1.0
 21
0.0
 31
0.0
 73
2
 44
0.9
  1
 301351.104 СБ
 40
3.5
 41
26.7647058824
  0
MTEXT
  5
300
100
AcDbEntity
  8
0
100
AcDbMText
 62
2
  6
CONTINUOUS
  7
TEXTSTYLE_5
 71
1
 72
1
 10
472.9661614012
 20
270.8069532853
 30
0.0
 11
1.0
 21
0.0
 31
0.0
 73
2
 44
0.9
  1
 Сборочный чертеж
 40
3.5
 41
36.2224264706
  0
MTEXT
  5
301
100
AcDbEntity
  8
0
100
AcDbMText
 62
2
  6
CONTINUOUS
  7
TEXTSTYLE_2
 71
2
 72
1
 10
532.9036614012
 20
254.8069532853
 30
0.0
 11
1.0
 21
0.0
 31
0.0
 73
2
 44
0.9
  1
Сборочные единицы
 40
3.5
 41
35.3602941176
  0
MTEXT
  5
302
100
AcDbEntity
  8
0
100
AcDbMText
 62
2
  6
CONTINUOUS
  7
TEXTSTYLE_2
 71
2
 72
1
 10
428.9036614012
 20
238.8069532853
 30
0.0
 11
1.0
 21
0.0
 31
0.0
 73
2
 44
0.9
  1
1
 40
3.5
 41
1.5183823529
  0
MTEXT
  5
303
100
AcDbEntity
  8
0
100
AcDbMText
 62
2
  6
CONTINUOUS
  7
TEXTSTYLE_2
 71
2
 72
1
 10
452.9036614012
 20
238.8069532853
 30
0.0
 11
1.0
 21
0.0
 31
0.0
 73
2
 44
0.9
  1
 305351.133
 40
3.5
 41
20.3566176471
  0
MTEXT
  5
304
100
AcDbEntity
  8
0
100
AcDbMText
 62
2
  6
CONTINUOUS
  7
TEXTSTYLE_5
 71
2
 72
1
 10
532.9036614012
 20
238.8069532853
 30
0.0
 11
1.0
 21
0.0
 31
0.0
 73
2
 44
0.9
  1
 Комплект уплотнения шкаф-пол
 40
3.5
 41
62.6783088235
  0
MTEXT
  5
305
100
AcDbEntity
  8
0
100
AcDbMText
 62
2
  6
CONTINUOUS
  7
TEXTSTYLE_2
 71
2
 72
1
 10
597.9036614012
 20
238.8069532853
 30
0.0
 11
1.0
 21
0.0
 31
0.0
 73
2
 44
0.9
  1
1
 40
3.5
 41
1.5183823529
  0
MTEXT
  5
306
100
AcDbEntity
  8
0
100
AcDbMText
 62
2
  6
CONTINUOUS
  7
TEXTSTYLE_2
 71
2
 72
1
 10
532.9036614012
 20
222.8069532853
 30
0.0
 11
1.0
 21
0.0
 31
0.0
 73
2
 44
0.9
  1
Детали
 40
3.5
 41
13.4466911765
  0
MTEXT
  5
307
100
AcDbEntity
  8
0
100
AcDbMText
 62
2
  6
CONTINUOUS
  7
TEXTSTYLE_2
 71
2
 72
1
 10
428.9036614012
 20
206.8069532853
 30
0.0
 11
1.0
 21
0.0
 31
0.0
 73
2
 44
0.9
  1
2
 40
3.5
 41
2.2775735294
  0
MTEXT
  5
308
100
AcDbEntity
  8
0
100
AcDbMText
 62
2
  6
CONTINUOUS
  7
TEXTSTYLE_2
 71
2
 72
1
 10
452.9036614012
 20
206.8069532853
 30
0.0
 11
1.0
 21
0.0
 31
0.0
 73
2
 44
0.9
  1
 321313.262-03
 40
3.5
 41
27.4338235294
  0
MTEXT
  5
309
100
AcDbEntity
  8
0
100
AcDbMText
 62
2
  6
CONTINUOUS
  7
TEXTSTYLE_5
 71
2
 72
1
 10
532.9036614012
 20
206.8069532853
 30
0.0
 11
1.0
 21
0.0
 31
0.0
 73
2
 44
0.9
  1
 Коробка
 40
3.5
 41
16.5992647059
  0
MTEXT
  5
30A
100
AcDbEntity
  8
0
100
AcDbMText
 62
2
  6
CONTINUOUS
  7
TEXTSTYLE_2
 71
2
 72
1
 10
597.9036614012
 20
206.8069532853
 30
0.0
 11
1.0
 21
0.0
 31
0.0
 73
2
 44
0.9
  1
1
 40
3.5
 41
1.5183823529
  0
MTEXT
  5
30B
100
AcDbEntity
  8
0
100
AcDbMText
 62
2
  6
CONTINUOUS
  7
TEXTSTYLE_2
 71
2
 72
1
 10
532.9036614012
 20
190.8069532853
 30
0.0
 11
1.0
 21
0.0
 31
0.0
 73
2
 44
0.9
  1
Прочие изделия
 40
3.5
 41
28.65625
  0
MTEXT
  5
30C
100
AcDbEntity
  8
0
100
AcDbMText
 62
2
  6
CONTINUOUS
  7
TEXTSTYLE_5
 71
1
 72
1
 10
424.9661614012
 20
174.8069532853
 30
0.0
 11
1.0
 21
0.0
 31
0.0
 73
2
 44
0.9
  1
3
 40
3.5
 41
2.0330882353
  0
MTEXT
  5
30D
100
AcDbEntity
  8
0
100
AcDbMText
 62
2
  6
CONTINUOUS
  7
TEXTSTYLE_5
 71
1
 72
1
 10
472.9661614012
 20
174.8069532853
 30
0.0
 11
1.0
 21
0.0
 31
0.0
 73
2
 44
0.9
  1
 Этикетка бумажная 80 мм х 170 мм (Eurolan)
 40
3.5
 41
88.9797794118
  0
MTEXT
  5
30E
100
AcDbEntity
  8
0
100
AcDbMText
 62
2
  6
CONTINUOUS
  7
TEXTSTYLE_5
 71
1
 72
1
 10
592.9661614012
 20
174.8069532853
 30
0.0
 11
1.0
 21
0.0
 31
0.0
 73
2
 44
0.9
  1
2
 40
3.5
 41
2.2775735294
  0
MTEXT
  5
30F
100
AcDbEntity
  8
0
100
AcDbMText
 62
2
  6
CONTINUOUS
  7
STANDARD
 71
1
 72
1
 10
112.4518184235
 20
203.2798911118
 30
0.0
 11
1.0
 21
0.0
 31
0.0
 73
2
 44
0.9
  1
Таблица 1
 40
3.5
 41
18.3621323529
  0
MTEXT
  5
310
100
AcDbEntity
  8
0
100
AcDbMText
 62
2
  6
CONTINUOUS
  7
STANDARD
 71
1
 72
1
 10
231.9293947594
 20
78.7301535163
 30
0.0
 11
1.0
 21
0.0
 31
0.0
 73
2
 44
0.9
  1
ТТ СТБ 1022-96.
 40
3.5
 41
31.0496323529
  0
LINE
  5
311
100
AcDbEntity
  8
0
100
AcDbLine
 62
2
  6
CONTINUOUS
 10
0.0
 20
0.0
 11
0.0
 21
297.0
  0
LINE
  5
312
100
AcDbEntity
  8
0
100
AcDbLine
 62
7
  6
CONTINUOUS
 10
20.0
 20
292.0
 11
20.0
 21
5.0
  0
LINE
  5
313
100
AcDbEntity
  8
0
100
AcDbLine
 62
2
  6
CONTINUOUS
 10
0.0
 20
0.0
 11
420.0
 21
0.0
  0
LINE
  5
314
100
AcDbEntity
  8
0
100
AcDbLine
 62
7
  6
CONTINUOUS
 10
20.0
 20
5.0
 11
415.0
 21
5.0
  0
LINE
  5
315
100
AcDbEntity
  8
0
100
AcDbLine
 62
7
  6
CONTINUOUS
 10
295.0017950139
 20
20.0007592282
 11
415.0017950139
 21
20.0007592282
  0
LINE
  5
316
100
AcDbEntity
  8
0
100
AcDbLine
 62
7
  6
CONTINUOUS
 10
365.0017950139
 20
25.0007592282
 11
415.0017950139
 21
25.0007592282
  0
LINE
  5
317
100
AcDbEntity
  8
0
100
AcDbLine
 62
7
  6
CONTINUOUS
 10
295.0017950139
 20
35.0007592282
 11
230.0017950139
 21
35.0007592282
  0
LINE
  5
318
100
AcDbEntity
  8
0
100
AcDbLine
 62
7
  6
CONTINUOUS
 10
230.0017950139
 20
40.0007592282
 11
295.0017950139
 21
40.0007592282
  0
LINE
  5
319
100
AcDbEntity
  8
0
100
AcDbLine
 62
7
  6
CONTINUOUS
 10
365.0017950139
 20
40.0007592282
 11
415.0017950139
 21
40.0007592282
  0
LINE
  5
31A
100
AcDbEntity
  8
0
100
AcDbLine
 62
7
  6
CONTINUOUS
 10
415.0017950139
 20
45.0007592282
 11
295.0017950139
 21
45.0007592282
  0
LINE
  5
31B
100
AcDbEntity
  8
0
100
AcDbLine
 62
7
  6
CONTINUOUS
 10
230.0017950139
 20
60.0007592282
 11
415.0017950139
 21
60.0007592282
  0
LINE
  5
31C
100
AcDbEntity
  8
0
100
AcDbLine
 62
7
  6
CONTINUOUS
 10
230.0017950139
 20
60.0007592282
 11
230.0017950139
 21
5.0007592282
  0
LINE
  5
31D
100
AcDbEntity
  8
0
100
AcDbLine
 62
7
  6
CONTINUOUS
 10
237.0017950139
 20
35.0007592282
 11
237.0017950139
 21
60.0007592282
  0
LINE
  5
31E
100
AcDbEntity
  8
0
100
AcDbLine
 62
7
  6
CONTINUOUS
 10
247.0017950139
 20
60.0007592282
 11
247.0017950139
 21
5.0007592282
  0
LINE
  5
31F
100
AcDbEntity
  8
0
100
AcDbLine
 62
7
  6
CONTINUOUS
 10
270.0017950139
 20
5.0007592282
 11
270.0017950139
 21
60.0007592282
  0
LINE
  5
320
100
AcDbEntity
  8
0
100
AcDbLine
 62
7
  6
CONTINUOUS
 10
285.0017950139
 20
60.0007592282
 11
285.0017950139
 21
5.0007592282
  0
LINE
  5
321
100
AcDbEntity
  8
0
100
AcDbLine
 62
7
  6
CONTINUOUS
 10
295.0017950139
 20
60.0007592282
 11
295.0017950139
 21
5.0007592282
  0
LINE
  5
322
100
AcDbEntity
  8
0
100
AcDbLine
 62
7
  6
CONTINUOUS
 10
20.0
 20
292.0
 11
415.0
 21
292.0
  0
LINE
  5
323
100
AcDbEntity
  8
0
100
AcDbLine
 62
2
  6
CONTINUOUS
 10
0.0
 20
297.0
 11
420.0
 21
297.0
  0
LINE
  5
324
100
AcDbEntity
  8
0
100
AcDbLine
 62
7
  6
CONTINUOUS
 10
365.0017950139
 20
45.0007592282
 11
365.0017950139
 21
5.0007592282
  0
LINE
  5
325
100
AcDbEntity
  8
0
100
AcDbLine
 62
7
  6
CONTINUOUS
 10
380.0017950139
 20
45.0007592282
 11
380.0017950139
 21
25.0007592282
  0
LINE
  5
326
100
AcDbEntity
  8
0
100
AcDbLine
 62
7
  6
CONTINUOUS
 10
385.0017950139
 20
25.0007592282
 11
385.0017950139
 21
20.0007592282
  0
LINE
  5
327
100
AcDbEntity
  8
0
100
AcDbLine
 62
7
  6
CONTINUOUS
 10
397.0017950139
 20
45.0007592282
 11
397.0017950139
 21
25.0007592282
  0
LINE
  5
328
100
AcDbEntity
  8
0
100
AcDbLine
 62
7
  6
CONTINUOUS
 10
415.0
 20
5.0
 11
415.0
 21
292.0
  0
LINE
  5
329
100
AcDbEntity
  8
0
100
AcDbLine
 62
2
  6
CONTINUOUS
 10
420.0
 20
0.0
 11
420.0
 21
297.0
  0
LINE
  5
32A
100
AcDbEntity
  8
0
100
AcDbLine
 62
7
  6
CONTINUOUS
 10
92.9996493806
 20
224.5817138621
 11
92.9055523401
 21
224.7008713575
  0
LINE
  5
32B
100
AcDbEntity
  8
0
100
AcDbLine
 62
7
  6
CONTINUOUS
 10
95.7206985989
 20
220.596986278
 11
95.8549700265
 21
220.4213965744
  0
LINE
  5
32C
100
AcDbEntity
  8
0
100
AcDbLine
 62
7
  6
CONTINUOUS
 10
92.9055523401
 20
224.7008713575
 11
92.9110194276
 21
232.2580467619
  0
LINE
  5
32D
100
AcDbEntity
  8
0
100
AcDbLine
 62
3
  6
CONTINUOUS
 10
92.9996493806
 20
224.5817138621
 11
93.005116468
 21
232.1388892666
  0
LINE
  5
32E
100
AcDbEntity
  8
0
100
AcDbLine
 62
7
  6
CONTINUOUS
 10
93.005116468
 20
232.1388892666
 11
92.9110194276
 21
232.2580467619
  0
LINE
  5
32F
100
AcDbEntity
  8
0
100
AcDbLine
 62
7
  6
CONTINUOUS
 10
102.6698867707
 20
219.2512391601
 11
102.8041581983
 21
219.0756494565
  0
LINE
  5
330
100
AcDbEntity
  8
0
100
AcDbLine
 62
7
  6
CONTINUOUS
 10
99.8986842185
 20
227.4220069643
 11
99.229722533
 21
228.5868525424
  0
LINE
  5
331
100
AcDbEntity
  8
0
100
AcDbLine
 62
7
  6
CONTINUOUS
 10
99.5004309413
 20
228.7056696666
 11
100.1693926268
 21
227.5408240885
  0
LINE
  5
332
100
AcDbEntity
  8
0
100
AcDbLine
 62
7
  6
CONTINUOUS
 10
99.229722533
 20
228.5868525424
 11
99.0737150115
 21
228.9136627574
  0
LINE
  5
333
100
AcDbEntity
  8
0
100
AcDbLine
 62
7
  6
CONTINUOUS
 10
101.3834170154
 20
224.9503378359
 11
99.7364962141
 21
228.4003672715
  0
LINE
  5
334
100
AcDbEntity
  8
0
100
AcDbLine
 62
3
  6
CONTINUOUS
 10
101.4954342878
 20
224.9995035425
 11
99.8485134865
 21
228.4495329781
  0
LINE
  5
335
100
AcDbEntity
  8
0
100
AcDbLine
 62
7
  6
CONTINUOUS
 10
99.8951750092
 20
229.2742112722
 11
100.0511825307
 21
228.9474010572
  0
LINE
  5
336
100
AcDbEntity
  8
0
100
AcDbLine
 62
7
  6
CONTINUOUS
 10
100.2627403538
 20
227.5817955106
 11
99.7804741223
 21
228.828583933
  0
LINE
  5
337
100
AcDbEntity
  8
0
100
AcDbLine
 62
7
  6
CONTINUOUS
 10
100.0511825307
 20
228.9474010572
 11
100.5334487621
 21
227.7006126348
  0
LINE
  5
338
100
AcDbEntity
  8
0
100
AcDbLine
 62
9
  6
CONTINUOUS
 10
97.1500064149
 20
224.9320084212
 11
97.1554735023
 21
232.4891838256
  0
LINE
  5
339
100
AcDbEntity
  8
0
100
AcDbLine
 62
9
  6
CONTINUOUS
 10
97.4173142646
 20
224.9980004617
 11
97.4227813521
 21
232.5551758661
  0
LINE
  5
33A
100
AcDbEntity
  8
0
100
AcDbLine
 62
9
  6
CONTINUOUS
 10
97.4711412288
 20
224.9285278806
 11
97.470884959
 21
224.5742852835
  0
LINE
  5
33B
100
AcDbEntity
  8
0
100
AcDbLine
 62
7
  6
CONTINUOUS
 10
102.8041581983
 20
219.0756494565
 11
95.8549700265
 21
220.4213965744
  0
LINE
  5
33C
100
AcDbEntity
  8
0
100
AcDbLine
 62
3
  6
CONTINUOUS
 10
102.6698867707
 20
219.2512391601
 11
95.7206985989
 21
220.596986278
  0
LINE
  5
33D
100
AcDbEntity
  8
0
100
AcDbLine
 62
3
  6
CONTINUOUS
 10
104.3736581592
 20
223.1197690486
 11
105.4495089091
 21
221.757391655
  0
LINE
  5
33E
100
AcDbEntity
  8
0
100
AcDbLine
 62
7
  6
CONTINUOUS
 10
97.1554735023
 20
232.4891838256
 11
97.0613764619
 21
232.608341321
  0
LINE
  5
33F
100
AcDbEntity
  8
0
100
AcDbLine
 62
9
  6
CONTINUOUS
 10
104.373914429
 20
223.4740116457
 11
105.4497651788
 21
222.1116342521
  0
LINE
  5
340
100
AcDbEntity
  8
0
100
AcDbLine
 62
7
  6
CONTINUOUS
 10
104.2092117632
 20
222.9715015053
 11
104.3434831908
 21
222.7959118017
  0
LINE
  5
341
100
AcDbEntity
  8
0
100
AcDbLine
 62
3
  6
CONTINUOUS
 10
97.3199198984
 20
232.637451369
 11
95.7847386064
 21
234.6450417615
  0
LINE
  5
342
100
AcDbEntity
  8
0
100
AcDbLine
 62
9
  6
CONTINUOUS
 10
104.3596609755
 20
223.1558296288
 11
104.3736581592
 21
223.1197690486
  0
LINE
  5
343
100
AcDbEntity
  8
0
100
AcDbLine
 62
9
  6
CONTINUOUS
 10
104.3599172453
 20
223.5100722259
 11
104.373914429
 21
223.4740116457
  0
LINE
  5
344
100
AcDbEntity
  8
0
100
AcDbLine
 62
7
  6
CONTINUOUS
 10
100.9188004768
 20
224.2608703958
 11
100.918544207
 21
223.9066277987
  0
LINE
  5
345
100
AcDbEntity
  8
0
100
AcDbLine
 62
9
  6
CONTINUOUS
 10
101.6072465444
 20
224.7652751714
 11
101.6073490523
 21
224.9069722102
  0
LINE
  5
346
100
AcDbEntity
  8
0
100
AcDbLine
 62
7
  6
CONTINUOUS
 10
101.8889159258
 20
224.7107284029
 11
101.8888305025
 21
224.5926475372
  0
LINE
  5
347
100
AcDbEntity
  8
0
100
AcDbLine
 62
7
  6
CONTINUOUS
 10
98.0681177909
 20
231.0202242927
 11
98.0960852995
 21
231.1288815731
  0
LINE
  5
348
100
AcDbEntity
  8
0
100
AcDbLine
 62
7
  6
CONTINUOUS
 10
95.7847386064
 20
234.6450417615
 11
95.9193724542
 21
234.970426743
  0
LINE
  5
349
100
AcDbEntity
  8
0
100
AcDbLine
 62
3
  6
CONTINUOUS
 10
104.3794242281
 20
231.090227483
 11
105.4552749779
 21
229.7278500894
  0
LINE
  5
34A
100
AcDbEntity
  8
0
100
AcDbLine
 62
3
  6
CONTINUOUS
 10
104.2152383944
 20
231.3021363993
 11
102.6800571025
 21
233.3097267918
  0
LINE
  5
34B
100
AcDbEntity
  8
0
100
AcDbLine
 62
7
  6
CONTINUOUS
 10
104.3498722422
 20
231.6275213808
 11
102.8146909502
 21
233.6351117733
  0
LINE
  5
34C
100
AcDbEntity
  8
0
100
AcDbLine
 62
7
  6
CONTINUOUS
 10
104.0436175325
 20
224.1753616092
 11
104.0437029558
 21
224.2934424749
  0
LINE
  5
34D
100
AcDbEntity
  8
0
100
AcDbLine
 62
9
  6
CONTINUOUS
 10
104.0975726315
 20
224.2830103267
 11
104.0976751394
 21
224.4247073655
  0
LINE
  5
34E
100
AcDbEntity
  8
0
100
AcDbLine
 62
3
  6
CONTINUOUS
 10
104.3654270444
 20
231.1262880632
 11
104.3596609755
 21
223.1558296288
  0
LINE
  5
34F
100
AcDbEntity
  8
0
100
AcDbLine
 62
9
  6
CONTINUOUS
 10
104.3794242281
 20
231.090227483
 11
104.3736581592
 21
223.1197690486
  0
LINE
  5
350
100
AcDbEntity
  8
0
100
AcDbLine
 62
9
  6
CONTINUOUS
 10
104.2092117632
 20
222.9715015053
 11
97.2600235914
 21
224.3172486232
  0
LINE
  5
351
100
AcDbEntity
  8
0
100
AcDbLine
 62
9
  6
CONTINUOUS
 10
104.3661607434
 20
223.179929881
 11
97.4169725717
 21
224.5256769989
  0
LINE
  5
352
100
AcDbEntity
  8
0
100
AcDbLine
 62
7
  6
CONTINUOUS
 10
100.918544207
 20
223.9066277987
 11
97.470884959
 21
224.5742852835
  0
LINE
  5
353
100
AcDbEntity
  8
0
100
AcDbLine
 62
3
  6
CONTINUOUS
 10
100.9188004768
 20
224.2608703958
 11
97.4711412288
 21
224.9285278806
  0
LINE
  5
354
100
AcDbEntity
  8
0
100
AcDbLine
 62
7
  6
CONTINUOUS
 10
101.8888305025
 20
224.5926475372
 11
104.0436175325
 21
224.1753616092
  0
LINE
  5
355
100
AcDbEntity
  8
0
100
AcDbLine
 62
7
  6
CONTINUOUS
 10
101.6072465444
 20
224.7652751714
 11
104.0975726315
 21
224.2830103267
  0
LINE
  5
356
100
AcDbEntity
  8
0
100
AcDbLine
 62
3
  6
CONTINUOUS
 10
101.6073490523
 20
224.9069722102
 11
104.0976751394
 21
224.4247073655
  0
LINE
  5
357
100
AcDbEntity
  8
0
100
AcDbLine
 62
7
  6
CONTINUOUS
 10
104.7424265439
 20
231.1208652655
 11
105.8182772937
 21
229.7584878719
  0
LINE
  5
358
100
AcDbEntity
  8
0
100
AcDbLine
 62
3
  6
CONTINUOUS
 10
105.4552749779
 20
229.7278500894
 11
105.4495089091
 21
221.757391655
  0
LINE
  5
359
100
AcDbEntity
  8
0
100
AcDbLine
 62
7
  6
CONTINUOUS
 10
105.8182772937
 20
229.7584878719
 11
105.8125112249
 21
221.7880294375
  0
LINE
  5
35A
100
AcDbEntity
  8
0
100
AcDbLine
 62
3
  6
CONTINUOUS
 10
104.3596609755
 20
223.1558296288
 11
104.3588343874
 21
223.1457629467
  0
LINE
  5
35B
100
AcDbEntity
  8
0
100
AcDbLine
 62
3
  6
CONTINUOUS
 10
97.2600235914
 20
224.3172486232
 11
95.7206985989
 21
220.596986278
  0
LINE
  5
35C
100
AcDbEntity
  8
0
100
AcDbLine
 62
7
  6
CONTINUOUS
 10
102.6800571025
 20
233.3097267918
 11
102.8146909502
 21
233.6351117733
  0
LINE
  5
35D
100
AcDbEntity
  8
0
100
AcDbLine
 62
7
  6
CONTINUOUS
 10
104.2152383944
 20
231.3021363993
 11
104.3498722422
 21
231.6275213808
  0
LINE
  5
35E
100
AcDbEntity
  8
0
100
AcDbLine
 62
7
  6
CONTINUOUS
 10
105.4495089091
 20
221.757391655
 11
105.8125112249
 21
221.7880294375
  0
LINE
  5
35F
100
AcDbEntity
  8
0
100
AcDbLine
 62
9
  6
CONTINUOUS
 10
105.4497651788
 20
222.1116342521
 11
105.8127674946
 21
222.1422720346
  0
LINE
  5
360
100
AcDbEntity
  8
0
100
AcDbLine
 62
3
  6
CONTINUOUS
 10
104.2092117632
 20
222.9715015053
 11
102.6698867707
 21
219.2512391601
  0
LINE
  5
361
100
AcDbEntity
  8
0
100
AcDbLine
 62
7
  6
CONTINUOUS
 10
104.3434831908
 20
222.7959118017
 11
102.8041581983
 21
219.0756494565
  0
LINE
  5
362
100
AcDbEntity
  8
0
100
AcDbLine
 62
3
  6
CONTINUOUS
 10
97.1500064149
 20
224.9320084212
 11
92.9996493806
 21
224.5817138621
  0
LINE
  5
363
100
AcDbEntity
  8
0
100
AcDbLine
 62
3
  6
CONTINUOUS
 10
97.3938138742
 20
232.5875470654
 11
104.2891323702
 21
231.2522320957
  0
LINE
  5
364
100
AcDbEntity
  8
0
100
AcDbLine
 62
9
  6
CONTINUOUS
 10
97.3199198984
 20
232.637451369
 11
104.2152383944
 21
231.3021363993
  0
LINE
  5
365
100
AcDbEntity
  8
0
100
AcDbLine
 62
7
  6
CONTINUOUS
 10
105.4552749779
 20
229.7278500894
 11
105.8182772937
 21
229.7584878719
  0
LINE
  5
366
100
AcDbEntity
  8
0
100
AcDbLine
 62
3
  6
CONTINUOUS
 10
95.7847386064
 20
234.6450417615
 11
102.6800571025
 21
233.3097267918
  0
LINE
  5
367
100
AcDbEntity
  8
0
100
AcDbLine
 62
7
  6
CONTINUOUS
 10
95.9193724542
 20
234.970426743
 11
102.8146909502
 21
233.6351117733
  0
LINE
  5
368
100
AcDbEntity
  8
0
100
AcDbLine
 62
7
  6
CONTINUOUS
 10
104.3794242281
 20
231.090227483
 11
104.7424265439
 21
231.1208652655
  0
LINE
  5
369
100
AcDbEntity
  8
0
100
AcDbLine
 62
7
  6
CONTINUOUS
 10
149.8704566216
 20
262.2318248677
 11
99.6390093137
 21
234.2500993523
  0
LINE
  5
36A
100
AcDbEntity
  8
0
100
AcDbLine
 62
9
  6
CONTINUOUS
 10
150.0836624426
 20
262.262907783
 11
99.7558114181
 21
234.2274800057
  0
LINE
  5
36B
100
AcDbEntity
  8
0
100
AcDbLine
 62
9
  6
CONTINUOUS
 10
97.4584295383
 20
232.5750338996
 11
97.4227813521
 21
232.5551758661
  0
LINE
  5
36C
100
AcDbEntity
  8
0
100
AcDbLine
 62
3
  6
CONTINUOUS
 10
97.1554735023
 20
232.4891838256
 11
93.005116468
 21
232.1388892666
  0
LINE
  5
36D
100
AcDbEntity
  8
0
100
AcDbLine
 62
7
  6
CONTINUOUS
 10
97.0613764619
 20
232.608341321
 11
92.9110194276
 21
232.2580467619
  0
LINE
  5
36E
100
AcDbEntity
  8
0
100
AcDbLine
 62
7
  6
CONTINUOUS
 10
98.0960852995
 20
231.1288815731
 11
99.8579703752
 21
232.1103500997
  0
LINE
  5
36F
100
AcDbEntity
  8
0
100
AcDbLine
 62
7
  6
CONTINUOUS
 10
99.0737150115
 20
228.9136627574
 11
99.3308265772
 21
229.0568882793
  0
LINE
  5
370
100
AcDbEntity
  8
0
100
AcDbLine
 62
7
  6
CONTINUOUS
 10
99.6244666009
 20
229.155394148
 11
103.6209103504
 21
231.3816368312
  0
LINE
  5
371
100
AcDbEntity
  8
0
100
AcDbLine
 62
7
  6
CONTINUOUS
 10
99.8951750092
 20
229.2742112722
 11
103.6635134157
 21
231.3733865218
  0
LINE
  5
372
100
AcDbEntity
  8
0
100
AcDbLine
 62
9
  6
CONTINUOUS
 10
156.9789809386
 20
260.9275928133
 11
104.3722685052
 21
231.6227117782
  0
LINE
  5
373
100
AcDbEntity
  8
0
100
AcDbLine
 62
7
  6
CONTINUOUS
 10
100.0511825307
 20
228.9474010572
 11
104.2146109806
 21
231.2666635577
  0
LINE
  5
374
100
AcDbEntity
  8
0
100
AcDbLine
 62
9
  6
CONTINUOUS
 10
157.3557696875
 20
260.441284746
 11
104.7490572541
 21
231.1364037108
  0
LINE
  5
375
100
AcDbEntity
  8
0
100
AcDbLine
 62
7
  6
CONTINUOUS
 10
100.5334487621
 20
227.7006126348
 11
104.3644926841
 21
229.8347183635
  0
LINE
  5
376
100
AcDbEntity
  8
0
100
AcDbLine
 62
9
  6
CONTINUOUS
 10
100.5323252276
 20
226.7332357857
 11
97.4173142646
 21
224.9980004617
  0
LINE
  5
377
100
AcDbEntity
  8
0
100
AcDbLine
 62
9
  6
CONTINUOUS
 10
100.569829471
 20
226.6546705363
 11
97.4711412288
 21
224.9285278806
  0
LINE
  5
378
100
AcDbEntity
  8
0
100
AcDbLine
 62
3
  6
CONTINUOUS
 10
97.4787822501
 20
224.5601084467
 11
97.4169725717
 21
224.5256769989
  0
LINE
  5
379
100
AcDbEntity
  8
0
100
AcDbLine
 62
9
  6
CONTINUOUS
 10
104.3621500051
 20
226.5964245279
 11
101.4954342878
 21
224.9995035425
  0
LINE
  5
37A
100
AcDbEntity
  8
0
100
AcDbLine
 62
9
  6
CONTINUOUS
 10
104.3620379194
 20
226.4414879745
 11
101.6073490523
 21
224.9069722102
  0
LINE
  5
37B
100
AcDbEntity
  8
0
100
AcDbLine
 62
3
  6
CONTINUOUS
 10
101.7682962366
 20
224.734087045
 11
100.9188004768
 21
224.2608703958
  0
LINE
  5
37C
100
AcDbEntity
  8
0
100
AcDbLine
 62
7
  6
CONTINUOUS
 10
99.0737150115
 20
228.9136627574
 11
99.3444234199
 21
229.0324798816
  0
LINE
  5
37D
100
AcDbEntity
  8
0
100
AcDbLine
 62
7
  6
CONTINUOUS
 10
99.6244666009
 20
229.155394148
 11
99.8951750092
 21
229.2742112722
  0
LINE
  5
37E
100
AcDbEntity
  8
0
100
AcDbLine
 62
7
  6
CONTINUOUS
 10
99.7804741223
 20
228.828583933
 11
99.5004309413
 21
228.7056696666
  0
LINE
  5
37F
100
AcDbEntity
  8
0
100
AcDbLine
 62
9
  6
CONTINUOUS
 10
99.8485134865
 20
228.4495329781
 11
99.7364962141
 21
228.4003672715
  0
LINE
  5
380
100
AcDbEntity
  8
0
100
AcDbLine
 62
7
  6
CONTINUOUS
 10
100.5334487621
 20
227.7006126348
 11
100.2627403538
 21
227.5817955106
  0
LINE
  5
381
100
AcDbEntity
  8
0
100
AcDbLine
 62
7
  6
CONTINUOUS
 10
100.1693926268
 20
227.5408240885
 11
99.8986842185
 21
227.4220069643
  0
LINE
  5
382
100
AcDbEntity
  8
0
100
AcDbLine
 62
7
  6
CONTINUOUS
 10
102.0826680261
 20
224.5551098735
 11
100.918544207
 21
223.9066277987
  0
LINE
  5
383
100
AcDbEntity
  8
0
100
AcDbLine
 62
7
  6
CONTINUOUS
 10
104.213026357
 20
224.2697317992
 11
104.0436175325
 21
224.1753616092
  0
LINE
  5
384
100
AcDbEntity
  8
0
100
AcDbLine
 62
9
  6
CONTINUOUS
 10
101.3834170154
 20
224.9503378359
 11
101.4954342878
 21
224.9995035425
  0
LINE
  5
385
100
AcDbEntity
  8
0
100
AcDbLine
 62
9
  6
CONTINUOUS
 10
157.3500036187
 20
252.4708263116
 11
105.8139395122
 21
223.7623562742
  0
LINE
  5
386
100
AcDbEntity
  8
0
100
AcDbLine
 62
7
  6
CONTINUOUS
 10
157.1858227282
 20
252.1616512344
 11
105.8137819456
 21
223.544551362
  0
LINE
  5
387
100
AcDbEntity
  8
0
100
AcDbLine
 62
7
  6
CONTINUOUS
 10
157.3881904544
 20
252.4802537459
 11
160.7217922781
 21
252.7616132944
  0
LINE
  5
388
100
AcDbEntity
  8
0
100
AcDbLine
 62
9
  6
CONTINUOUS
 10
157.3884467241
 20
252.834496343
 11
160.7220485478
 21
253.1158558914
  0
LINE
  5
389
100
AcDbEntity
  8
0
100
AcDbLine
 62
7
  6
CONTINUOUS
 10
150.1060837255
 20
262.2926832653
 11
151.3424825606
 21
265.2808294021
  0
LINE
  5
38A
100
AcDbEntity
  8
0
100
AcDbLine
 62
7
  6
CONTINUOUS
 10
157.3939565232
 20
260.4507121803
 11
160.7275583469
 21
260.7320717287
  0
LINE
  5
38B
100
AcDbEntity
  8
0
100
AcDbLine
 62
3
  6
CONTINUOUS
 10
157.3649453351
 20
260.575362991
 11
160.6334613065
 21
260.8512292241
  0
LINE
  5
38C
100
AcDbEntity
  8
0
100
AcDbLine
 62
7
  6
CONTINUOUS
 10
155.2588944333
 20
251.0882444041
 11
158.2280837499
 21
250.5132451572
  0
LINE
  5
38D
100
AcDbEntity
  8
0
100
AcDbLine
 62
7
  6
CONTINUOUS
 10
149.2117763482
 20
263.0630990474
 11
148.8487740324
 21
263.0324612649
  0
LINE
  5
38E
100
AcDbEntity
  8
0
100
AcDbLine
 62
7
  6
CONTINUOUS
 10
148.8487740324
 20
263.0324612649
 11
148.8477826996
 21
261.6621382967
  0
LINE
  5
38F
100
AcDbEntity
  8
0
100
AcDbLine
 62
7
  6
CONTINUOUS
 10
157.0014022215
 20
260.9573682956
 11
158.2378010566
 21
263.9455144324
  0
LINE
  5
390
100
AcDbEntity
  8
0
100
AcDbLine
 62
3
  6
CONTINUOUS
 10
157.1735982187
 20
260.8734352263
 11
158.3720724842
 21
263.7699247287
  0
LINE
  5
391
100
AcDbEntity
  8
0
100
AcDbLine
 62
9
  6
CONTINUOUS
 10
156.9789809386
 20
260.9275928133
 11
150.0836624426
 21
262.262907783
  0
LINE
  5
392
100
AcDbEntity
  8
0
100
AcDbLine
 62
9
  6
CONTINUOUS
 10
157.0014022215
 20
260.9573682956
 11
150.1060837255
 21
262.2926832653
  0
LINE
  5
393
100
AcDbEntity
  8
0
100
AcDbLine
 62
7
  6
CONTINUOUS
 10
158.3627175977
 20
250.8386301387
 11
158.2280837499
 21
250.5132451572
  0
LINE
  5
394
100
AcDbEntity
  8
0
100
AcDbLine
 62
7
  6
CONTINUOUS
 10
158.2378010566
 20
263.9455144324
 11
151.3424825606
 21
265.2808294021
  0
LINE
  5
395
100
AcDbEntity
  8
0
100
AcDbLine
 62
7
  6
CONTINUOUS
 10
149.5999995362
 20
262.0811651449
 11
148.8487740324
 21
263.0324612649
  0
LINE
  5
396
100
AcDbEntity
  8
0
100
AcDbLine
 62
7
  6
CONTINUOUS
 10
157.0327651595
 20
252.0763896084
 11
158.2280837499
 21
250.5132451572
  0
LINE
  5
397
100
AcDbEntity
  8
0
100
AcDbLine
 62
3
  6
CONTINUOUS
 10
157.2900637782
 20
252.2413631669
 11
158.3627175977
 21
250.8386301387
  0
LINE
  5
398
100
AcDbEntity
  8
0
100
AcDbLine
 62
9
  6
CONTINUOUS
 10
157.3500036187
 20
252.4708263116
 11
157.3557696875
 21
260.441284746
  0
LINE
  5
399
100
AcDbEntity
  8
0
100
AcDbLine
 62
9
  6
CONTINUOUS
 10
157.3881904544
 20
252.4802537459
 11
157.3939565232
 21
260.4507121803
  0
LINE
  5
39A
100
AcDbEntity
  8
0
100
AcDbLine
 62
3
  6
CONTINUOUS
 10
149.8690803934
 20
262.2307380792
 11
149.2117763482
 21
263.0630990474
  0
LINE
  5
39B
100
AcDbEntity
  8
0
100
AcDbLine
 62
7
  6
CONTINUOUS
 10
160.7217922781
 20
252.7616132944
 11
160.7275583469
 21
260.7320717287
  0
LINE
  5
39C
100
AcDbEntity
  8
0
100
AcDbLine
 62
7
  6
CONTINUOUS
 10
160.6334613065
 20
260.8512292241
 11
160.7275583469
 21
260.7320717287
  0
LINE
  5
39D
100
AcDbEntity
  8
0
100
AcDbLine
 62
7
  6
CONTINUOUS
 10
158.3720724842
 20
263.7699247287
 11
158.2378010566
 21
263.9455144324
  0
LINE
  5
39E
100
AcDbEntity
  8
0
100
AcDbLine
 62
7
  6
CONTINUOUS
 10
203.5287083497
 20
242.500894125
 11
203.5287083497
 21
250.500894125
  0
LINE
  5
39F
100
AcDbEntity
  8
0
100
AcDbLine
 62
3
  6
CONTINUOUS
 10
203.7938733926
 20
242.500894125
 11
203.7938733926
 21
250.500894125
  0
LINE
  5
3A0
100
AcDbEntity
  8
0
100
AcDbLine
 62
7
  6
CONTINUOUS
 10
215.016256821
 20
238.5758456536
 11
206.953756821
 21
238.5758456536
  0
LINE
  5
3A1
100
AcDbEntity
  8
0
100
AcDbLine
 62
3
  6
CONTINUOUS
 10
215.016256821
 20
238.8410106965
 11
206.953756821
 21
238.8410106965
  0
LINE
  5
3A2
100
AcDbEntity
  8
0
100
AcDbLine
 62
9
  6
CONTINUOUS
 10
215.016256821
 20
241.8727533417
 11
206.953756821
 21
241.8727533417
  0
LINE
  5
3A3
100
AcDbEntity
  8
0
100
AcDbLine
 62
3
  6
CONTINUOUS
 10
215.016256821
 20
242.000894125
 11
206.953756821
 21
242.000894125
  0
LINE
  5
3A4
100
AcDbEntity
  8
0
100
AcDbLine
 62
7
  6
CONTINUOUS
 10
211.016256821
 20
242.063394125
 11
207.016256821
 21
242.063394125
  0
LINE
  5
3A5
100
AcDbEntity
  8
0
100
AcDbLine
 62
3
  6
CONTINUOUS
 10
215.2068976043
 20
242.063394125
 11
218.2386402495
 21
242.063394125
  0
LINE
  5
3A6
100
AcDbEntity
  8
0
100
AcDbLine
 62
9
  6
CONTINUOUS
 10
215.078756821
 20
242.063394125
 11
215.2068976043
 21
242.063394125
  0
LINE
  5
3A7
100
AcDbEntity
  8
0
100
AcDbLine
 62
7
  6
CONTINUOUS
 10
218.2386402495
 20
242.063394125
 11
218.5038052924
 21
242.063394125
  0
LINE
  5
3A8
100
AcDbEntity
  8
0
100
AcDbLine
 62
9
  6
CONTINUOUS
 10
206.8256160378
 20
242.500894125
 11
206.8256160378
 21
250.500894125
  0
LINE
  5
3A9
100
AcDbEntity
  8
0
100
AcDbLine
 62
3
  6
CONTINUOUS
 10
206.953756821
 20
242.000894125
 11
206.953756821
 21
238.8410106965
  0
LINE
  5
3AA
100
AcDbEntity
  8
0
100
AcDbLine
 62
7
  6
CONTINUOUS
 10
206.953756821
 20
238.8410106965
 11
206.953756821
 21
238.5758456536
  0
LINE
  5
3AB
100
AcDbEntity
  8
0
100
AcDbLine
 62
3
  6
CONTINUOUS
 10
206.953756821
 20
242.500894125
 11
206.953756821
 21
250.500894125
  0
LINE
  5
3AC
100
AcDbEntity
  8
0
100
AcDbLine
 62
9
  6
CONTINUOUS
 10
207.016256821
 20
242.438394125
 11
207.016256821
 21
242.063394125
  0
LINE
  5
3AD
100
AcDbEntity
  8
0
100
AcDbLine
 62
9
  6
CONTINUOUS
 10
207.016256821
 20
250.563394125
 11
207.016256821
 21
250.6915349082
  0
LINE
  5
3AE
100
AcDbEntity
  8
0
100
AcDbLine
 62
3
  6
CONTINUOUS
 10
207.016256821
 20
250.6915349082
 11
207.016256821
 21
253.7232775534
  0
LINE
  5
3AF
100
AcDbEntity
  8
0
100
AcDbLine
 62
7
  6
CONTINUOUS
 10
207.016256821
 20
253.7232775534
 11
207.016256821
 21
253.9884425963
  0
LINE
  5
3B0
100
AcDbEntity
  8
0
100
AcDbLine
 62
7
  6
CONTINUOUS
 10
207.7036642456
 20
249.0085045251
 11
207.7360166262
 21
249.1292452534
  0
LINE
  5
3B1
100
AcDbEntity
  8
0
100
AcDbLine
 62
3
  6
CONTINUOUS
 10
211.016256821
 20
242.438394125
 11
207.016256821
 21
242.438394125
  0
LINE
  5
3B2
100
AcDbEntity
  8
0
100
AcDbLine
 62
9
  6
CONTINUOUS
 10
215.078756821
 20
242.438394125
 11
218.5038052924
 21
242.438394125
  0
LINE
  5
3B3
100
AcDbEntity
  8
0
100
AcDbLine
 62
3
  6
CONTINUOUS
 10
206.953756821
 20
242.500894125
 11
203.7938733926
 21
242.500894125
  0
LINE
  5
3B4
100
AcDbEntity
  8
0
100
AcDbLine
 62
7
  6
CONTINUOUS
 10
203.7938733926
 20
242.500894125
 11
203.5287083497
 21
242.500894125
  0
LINE
  5
3B5
100
AcDbEntity
  8
0
100
AcDbLine
 62
7
  6
CONTINUOUS
 10
212.141256821
 20
242.988394125
 11
214.641256821
 21
242.988394125
  0
LINE
  5
3B6
100
AcDbEntity
  8
0
100
AcDbLine
 62
7
  6
CONTINUOUS
 10
211.8144619018
 20
243.113394125
 11
215.078756821
 21
243.113394125
  0
LINE
  5
3B7
100
AcDbEntity
  8
0
100
AcDbLine
 62
3
  6
CONTINUOUS
 10
211.8144619018
 20
243.263394125
 11
215.078756821
 21
243.263394125
  0
LINE
  5
3B8
100
AcDbEntity
  8
0
100
AcDbLine
 62
7
  6
CONTINUOUS
 10
208.8719700718
 20
246.9849394754
 11
209.1859042807
 21
247.1661894754
  0
LINE
  5
3B9
100
AcDbEntity
  8
0
100
AcDbLine
 62
7
  6
CONTINUOUS
 10
209.5106638071
 20
247.3536894754
 11
209.8245980159
 21
247.5349394754
  0
LINE
  5
3BA
100
AcDbEntity
  8
0
100
AcDbLine
 62
7
  6
CONTINUOUS
 10
209.8302232473
 20
245.575196289
 11
209.0532200718
 21
246.6710052665
  0
LINE
  5
3BB
100
AcDbEntity
  8
0
100
AcDbLine
 62
7
  6
CONTINUOUS
 10
209.0532200718
 20
246.6710052665
 11
208.8719700718
 21
246.9849394754
  0
LINE
  5
3BC
100
AcDbEntity
  8
0
100
AcDbLine
 62
7
  6
CONTINUOUS
 10
209.6919138071
 20
247.0397552665
 11
209.3671542807
 21
246.8522552665
  0
LINE
  5
3BD
100
AcDbEntity
  8
0
100
AcDbLine
 62
9
  6
CONTINUOUS
 10
209.7711606316
 20
246.6524957401
 11
209.641256821
 21
246.5774957401
  0
LINE
  5
3BE
100
AcDbEntity
  8
0
100
AcDbLine
 62
7
  6
CONTINUOUS
 10
209.3671542807
 20
246.8522552665
 11
210.1441574561
 21
245.756446289
  0
LINE
  5
3BF
100
AcDbEntity
  8
0
100
AcDbLine
 62
7
  6
CONTINUOUS
 10
211.5546542806
 20
243.263394125
 11
209.453756821
 21
246.9022552665
  0
LINE
  5
3C0
100
AcDbEntity
  8
0
100
AcDbLine
 62
3
  6
CONTINUOUS
 10
211.6845580912
 20
243.338394125
 11
209.5836606316
 21
246.9772552665
  0
LINE
  5
3C1
100
AcDbEntity
  8
0
100
AcDbLine
 62
7
  6
CONTINUOUS
 10
210.2524106316
 20
245.818946289
 11
209.6919138071
 21
247.0397552665
  0
LINE
  5
3C2
100
AcDbEntity
  8
0
100
AcDbLine
 62
7
  6
CONTINUOUS
 10
211.016256821
 20
242.438394125
 11
211.016256821
 21
242.063394125
  0
LINE
  5
3C3
100
AcDbEntity
  8
0
100
AcDbLine
 62
7
  6
CONTINUOUS
 10
210.5663448405
 20
246.000196289
 11
210.2524106316
 21
245.818946289
  0
LINE
  5
3C4
100
AcDbEntity
  8
0
100
AcDbLine
 62
7
  6
CONTINUOUS
 10
210.1441574561
 20
245.756446289
 11
209.8302232473
 21
245.575196289
  0
LINE
  5
3C5
100
AcDbEntity
  8
0
100
AcDbLine
 62
7
  6
CONTINUOUS
 10
209.8245980159
 20
247.5349394754
 11
210.0058480159
 21
247.2210052665
  0
LINE
  5
3C6
100
AcDbEntity
  8
0
100
AcDbLine
 62
7
  6
CONTINUOUS
 10
210.0058480159
 20
247.2210052665
 11
210.5663448405
 21
246.000196289
  0
LINE
  5
3C7
100
AcDbEntity
  8
0
100
AcDbLine
 62
9
  6
CONTINUOUS
 10
211.8144619018
 20
243.113394125
 11
211.8144619018
 21
243.263394125
  0
LINE
  5
3C8
100
AcDbEntity
  8
0
100
AcDbLine
 62
7
  6
CONTINUOUS
 10
212.141256821
 20
243.113394125
 11
212.141256821
 21
242.988394125
  0
LINE
  5
3C9
100
AcDbEntity
  8
0
100
AcDbLine
 62
9
  6
CONTINUOUS
 10
211.5546542806
 20
243.263394125
 11
211.6845580912
 21
243.338394125
  0
LINE
  5
3CA
100
AcDbEntity
  8
0
100
AcDbLine
 62
7
  6
CONTINUOUS
 10
214.641256821
 20
242.988394125
 11
214.641256821
 21
243.113394125
  0
LINE
  5
3CB
100
AcDbEntity
  8
0
100
AcDbLine
 62
9
  6
CONTINUOUS
 10
214.703756821
 20
243.113394125
 11
214.703756821
 21
243.263394125
  0
LINE
  5
3CC
100
AcDbEntity
  8
0
100
AcDbLine
 62
3
  6
CONTINUOUS
 10
215.016256821
 20
241.8727533417
 11
215.016256821
 21
238.8410106965
  0
LINE
  5
3CD
100
AcDbEntity
  8
0
100
AcDbLine
 62
9
  6
CONTINUOUS
 10
215.016256821
 20
242.000894125
 11
215.016256821
 21
241.8727533417
  0
LINE
  5
3CE
100
AcDbEntity
  8
0
100
AcDbLine
 62
7
  6
CONTINUOUS
 10
215.016256821
 20
238.8410106965
 11
215.016256821
 21
238.5758456536
  0
LINE
  5
3CF
100
AcDbEntity
  8
0
100
AcDbLine
 62
9
  6
CONTINUOUS
 10
215.016256821
 20
250.563394125
 11
215.016256821
 21
250.6915349082
  0
LINE
  5
3D0
100
AcDbEntity
  8
0
100
AcDbLine
 62
3
  6
CONTINUOUS
 10
215.016256821
 20
250.6915349082
 11
215.016256821
 21
253.7232775534
  0
LINE
  5
3D1
100
AcDbEntity
  8
0
100
AcDbLine
 62
7
  6
CONTINUOUS
 10
215.016256821
 20
253.7232775534
 11
215.016256821
 21
253.9884425963
  0
LINE
  5
3D2
100
AcDbEntity
  8
0
100
AcDbLine
 62
3
  6
CONTINUOUS
 10
215.078756821
 20
250.500894125
 11
215.078756821
 21
242.063394125
  0
LINE
  5
3D3
100
AcDbEntity
  8
0
100
AcDbLine
 62
9
  6
CONTINUOUS
 10
215.2068976043
 20
250.500894125
 11
215.2068976043
 21
242.063394125
  0
LINE
  5
3D4
100
AcDbEntity
  8
0
100
AcDbLine
 62
9
  6
CONTINUOUS
 10
206.953756821
 20
250.500894125
 11
206.8256160378
 21
250.500894125
  0
LINE
  5
3D5
100
AcDbEntity
  8
0
100
AcDbLine
 62
3
  6
CONTINUOUS
 10
206.8256160378
 20
250.500894125
 11
203.7938733926
 21
250.500894125
  0
LINE
  5
3D6
100
AcDbEntity
  8
0
100
AcDbLine
 62
7
  6
CONTINUOUS
 10
203.7938733926
 20
250.500894125
 11
203.5287083497
 21
250.500894125
  0
LINE
  5
3D7
100
AcDbEntity
  8
0
100
AcDbLine
 62
3
  6
CONTINUOUS
 10
215.2068976043
 20
250.500894125
 11
218.2386402495
 21
250.500894125
  0
LINE
  5
3D8
100
AcDbEntity
  8
0
100
AcDbLine
 62
9
  6
CONTINUOUS
 10
215.078756821
 20
250.500894125
 11
215.2068976043
 21
250.500894125
  0
LINE
  5
3D9
100
AcDbEntity
  8
0
100
AcDbLine
 62
7
  6
CONTINUOUS
 10
218.2386402495
 20
250.500894125
 11
218.5038052924
 21
250.500894125
  0
LINE
  5
3DA
100
AcDbEntity
  8
0
100
AcDbLine
 62
3
  6
CONTINUOUS
 10
207.016256821
 20
250.563394125
 11
215.016256821
 21
250.563394125
  0
LINE
  5
3DB
100
AcDbEntity
  8
0
100
AcDbLine
 62
9
  6
CONTINUOUS
 10
207.016256821
 20
250.6915349082
 11
215.016256821
 21
250.6915349082
  0
LINE
  5
3DC
100
AcDbEntity
  8
0
100
AcDbLine
 62
3
  6
CONTINUOUS
 10
218.2386402495
 20
250.500894125
 11
218.2386402495
 21
242.063394125
  0
LINE
  5
3DD
100
AcDbEntity
  8
0
100
AcDbLine
 62
7
  6
CONTINUOUS
 10
218.5038052924
 20
250.500894125
 11
218.5038052924
 21
242.063394125
  0
LINE
  5
3DE
100
AcDbEntity
  8
0
100
AcDbLine
 62
3
  6
CONTINUOUS
 10
207.016256821
 20
253.7232775534
 11
215.016256821
 21
253.7232775534
  0
LINE
  5
3DF
100
AcDbEntity
  8
0
100
AcDbLine
 62
7
  6
CONTINUOUS
 10
207.016256821
 20
253.9884425963
 11
215.016256821
 21
253.9884425963
  0
ARC
  5
3E0
100
AcDbEntity
  8
0
100
AcDbCircle
 62
7
  6
CONTINUOUS
 10
90.8234324955
 20
224.9648811073
 40
9.4420678943
100
AcDbArc
 50
25.5180445068
 51
39.8899727676
  0
ARC
  5
3E1
100
AcDbEntity
  8
0
100
AcDbCircle
 62
7
  6
CONTINUOUS
 10
104.2884413334
 20
225.3931948571
 40
1.1273077298
100
AcDbArc
 50
267.3202948264
 51
273.6988166946
  0
ARC
  5
3E2
100
AcDbEntity
  8
0
100
AcDbCircle
 62
9
  6
CONTINUOUS
 10
156.8212487123
 20
260.426640046
 40
0.536450142
100
AcDbArc
 50
19.4194925394
 51
37.7289880228
  0
ARC
  5
3E3
100
AcDbEntity
  8
0
100
AcDbCircle
 62
7
  6
CONTINUOUS
 10
97.6177244975
 20
225.0708164074
 40
0.5247068498
100
AcDbArc
 50
195.7123089759
 51
202.3402544675
  0
ARC
  5
3E4
100
AcDbEntity
  8
0
100
AcDbCircle
 62
7
  6
CONTINUOUS
 10
104.2859658565
 20
231.1211629479
 40
0.4564607845
100
AcDbArc
 50
359.9626343717
 51
1.5707483086
  0
ARC
  5
3E5
100
AcDbEntity
  8
0
100
AcDbCircle
 62
7
  6
CONTINUOUS
 10
156.9394628702
 20
252.4805721094
 40
0.4487276972
100
AcDbArc
 50
357.5206364825
 51
359.9593497736
  0
ARC
  5
3E6
100
AcDbEntity
  8
0
100
AcDbCircle
 62
7
  6
CONTINUOUS
 10
104.279168828
 20
231.2629444175
 40
0.3713695396
100
AcDbArc
 50
75.8228743468
 51
79.0247115283
  0
ARC
  5
3E7
100
AcDbEntity
  8
0
100
AcDbCircle
 62
7
  6
CONTINUOUS
 10
101.7118524678
 20
225.1071690579
 40
0.3639586222
100
AcDbArc
 50
205.5249432198
 51
208.8486782844
  0
ARC
  5
3E8
100
AcDbEntity
  8
0
100
AcDbCircle
 62
7
  6
CONTINUOUS
 10
150.0378132375
 20
261.9402701447
 40
0.3589649942
100
AcDbArc
 50
79.0363004375
 51
83.1631128325
  0
ARC
  5
3E9
100
AcDbEntity
  8
0
100
AcDbCircle
 62
7
  6
CONTINUOUS
 10
157.0482020036
 20
252.4428493266
 40
0.3325705664
100
AcDbArc
 50
323.5990647257
 51
329.7200578172
  0
ARC
  5
3EA
100
AcDbEntity
  8
0
100
AcDbCircle
 62
7
  6
CONTINUOUS
 10
97.3943046152
 20
232.6508781376
 40
0.3238421216
100
AcDbArc
 50
139.6146164763
 51
143.5886577104
  0
ARC
  5
3EB
100
AcDbEntity
  8
0
100
AcDbCircle
 62
7
  6
CONTINUOUS
 10
157.0699992434
 20
252.4244293237
 40
0.3043216269
100
AcDbArc
 50
285.7451808955
 51
294.7380305707
  0
ARC
  5
3EC
100
AcDbEntity
  8
0
100
AcDbCircle
 62
7
  6
CONTINUOUS
 10
150.0303195511
 20
261.9969625469
 40
0.3013109849
100
AcDbArc
 50
113.6167871549
 51
128.0031338372
  0
ARC
  5
3ED
100
AcDbEntity
  8
0
100
AcDbCircle
 62
9
  6
CONTINUOUS
 10
150.0131634685
 20
261.9752576839
 40
0.2935713626
100
AcDbArc
 50
104.5654567371
 51
119.0835227828
  0
ARC
  5
3EE
100
AcDbEntity
  8
0
100
AcDbCircle
 62
3
  6
CONTINUOUS
 10
104.1493656387
 20
231.0856076806
 40
0.2304260185
100
AcDbArc
 50
10.5299861981
 51
25.4245738016
  0
ARC
  5
3EF
100
AcDbEntity
  8
0
100
AcDbCircle
 62
7
  6
CONTINUOUS
 10
202.5071638321
 20
243.3102168796
 40
7.7119451916
100
AcDbArc
 50
30.0
 51
47.6370395624
  0
ARC
  5
3F0
100
AcDbEntity
  8
0
100
AcDbCircle
 62
7
  6
CONTINUOUS
 10
205.3067129877
 20
244.9265373382
 40
4.8543042745
100
AcDbArc
 50
30.0
 51
59.9706727853
  0
ARC
  5
3F1
100
AcDbEntity
  8
0
100
AcDbCircle
 62
7
  6
CONTINUOUS
 10
215.016256821
 20
242.063394125
 40
0.4558058262
100
AcDbArc
 50
270.0
 51
360.0
  0
ARC
  5
3F2
100
AcDbEntity
  8
0
100
AcDbCircle
 62
7
  6
CONTINUOUS
 10
215.016256821
 20
250.500894125
 40
0.4558058262
100
AcDbArc
 50
0.0
 51
90.0
  0
ARC
  5
3F3
100
AcDbEntity
  8
0
100
AcDbCircle
 62
7
  6
CONTINUOUS
 10
207.016256821
 20
250.500894125
 40
0.4558058262
100
AcDbArc
 50
90.0
 51
180.0
  0
ARC
  5
3F4
100
AcDbEntity
  8
0
100
AcDbCircle
 62
7
  6
CONTINUOUS
 10
207.016256821
 20
242.500894125
 40
0.4375
100
AcDbArc
 50
180.0
 51
270.0
  0
ARC
  5
3F5
100
AcDbEntity
  8
0
100
AcDbCircle
 62
7
  6
CONTINUOUS
 10
211.8144619018
 20
243.413394125
 40
0.3
100
AcDbArc
 50
210.0
 51
270.0
  0
ARC
  5
3F6
100
AcDbEntity
  8
0
100
AcDbCircle
 62
3
  6
CONTINUOUS
 10
207.016256821
 20
250.500894125
 40
0.1906407832
100
AcDbArc
 50
90.0
 51
180.0
  0
ARC
  5
3F7
100
AcDbEntity
  8
0
100
AcDbCircle
 62
3
  6
CONTINUOUS
 10
215.016256821
 20
242.063394125
 40
0.1906407832
100
AcDbArc
 50
270.0
 51
360.0
  0
ARC
  5
3F8
100
AcDbEntity
  8
0
100
AcDbCircle
 62
3
  6
CONTINUOUS
 10
215.016256821
 20
250.500894125
 40
0.1906407832
100
AcDbArc
 50
0.0
 51
90.0
  0
ARC
  5
3F9
100
AcDbEntity
  8
0
100
AcDbCircle
 62
3
  6
CONTINUOUS
 10
211.8144619018
 20
243.413394125
 40
0.15
100
AcDbArc
 50
210.0
 51
270.0
  0
ARC
  5
3FA
100
AcDbEntity
  8
0
100
AcDbCircle
 62
3
  6
CONTINUOUS
 10
207.016256821
 20
242.500894125
 40
0.0625
100
AcDbArc
 50
180.0
 51
270.0
  0
ARC
  5
3FB
100
AcDbEntity
  8
0
100
AcDbCircle
 62
3
  6
CONTINUOUS
 10
215.016256821
 20
242.063394125
 40
0.0625
100
AcDbArc
 50
270.0
 51
360.0
  0
ARC
  5
3FC
100
AcDbEntity
  8
0
100
AcDbCircle
 62
3
  6
CONTINUOUS
 10
215.016256821
 20
250.500894125
 40
0.0625
100
AcDbArc
 50
0.0
 51
90.0
  0
ARC
  5
3FD
100
AcDbEntity
  8
0
100
AcDbCircle
 62
3
  6
CONTINUOUS
 10
207.016256821
 20
250.500894125
 40
0.0625
100
AcDbArc
 50
90.0
 51
180.0
  0
SPLINE
  5
3FE
100
AcDbEntity
  8
0
100
AcDbSpline
 62
7
  6
CONTINUOUS
 70
0
 71
3
 72
9
 73
5
 74
0
 42
0.0000001
 43
0.0000001
 44
0.0000000001
 40
0.0
 40
0.0
 40
0.0
 40
0.0
 40
0.2470363433
 40
1.0
 40
1.0
 40
1.0
 40
1.0
 10
98.0960852995
 20
231.1288815731
 30
0.0
 10
98.2551385587
 20
230.9972569169
 30
0.0
 10
98.8682652268
 20
230.4280885618
 30
0.0
 10
99.353380244
 20
229.723275682
 30
0.0
 10
99.6244666009
 20
229.155394148
 30
0.0
  0
SPLINE
  5
3FF
100
AcDbEntity
  8
0
100
AcDbSpline
 62
7
  6
CONTINUOUS
 70
0
 71
3
 72
8
 73
4
 74
0
 42
0.0000001
 43
0.0000001
 44
0.0000000001
 40
0.0
 40
0.0
 40
0.0
 40
0.0
 40
1.0
 40
1.0
 40
1.0
 40
1.0
 10
101.3930621779
 20
224.9315597481
 30
0.0
 10
101.4292274072
 20
224.8658918107
 30
0.0
 10
101.4893662634
 20
224.8076384126
 30
0.0
 10
101.5589172614
 20
224.7796587686
 30
0.0
  0
SPLINE
  5
400
100
AcDbEntity
  8
0
100
AcDbSpline
 62
7
  6
CONTINUOUS
 70
0
 71
3
 72
8
 73
4
 74
0
 42
0.0000001
 43
0.0000001
 44
0.0000000001
 40
0.0
 40
0.0
 40
0.0
 40
0.0
 40
1.0
 40
1.0
 40
1.0
 40
1.0
 10
101.5589172614
 20
224.7796587686
 30
0.0
 10
101.5745108408
 20
224.7733856336
 30
0.0
 10
101.590745028
 20
224.7684707775
 30
0.0
 10
101.6072465444
 20
224.7652751714
 30
0.0
  0
SPLINE
  5
401
100
AcDbEntity
  8
0
100
AcDbSpline
 62
7
  6
CONTINUOUS
 70
0
 71
3
 72
9
 73
5
 74
0
 42
0.0000001
 43
0.0000001
 44
0.0000000001
 40
0.0
 40
0.0
 40
0.0
 40
0.0
 40
0.2638739558
 40
1.0
 40
1.0
 40
1.0
 40
1.0
 10
99.7364962141
 20
228.4003672715
 30
0.0
 10
99.7259678681
 20
228.4224224325
 30
0.0
 10
99.6909985634
 20
228.508070091
 30
0.0
 10
99.6736638108
 20
228.6024139333
 30
0.0
 10
99.6780704136
 20
228.6704492195
 30
0.0
  0
SPLINE
  5
402
100
AcDbEntity
  8
0
100
AcDbSpline
 62
7
  6
CONTINUOUS
 70
0
 71
3
 72
9
 73
5
 74
0
 42
0.0000001
 43
0.0000001
 44
0.0000000001
 40
0.0
 40
0.0
 40
0.0
 40
0.0
 40
0.2813323776
 40
1.0
 40
1.0
 40
1.0
 40
1.0
 10
99.6780704136
 20
228.6704492195
 30
0.0
 10
99.6789902575
 20
228.6846510539
 30
0.0
 10
99.6849708257
 20
228.7346843082
 30
0.0
 10
99.7038822342
 20
228.7848402136
 30
0.0
 10
99.7273141629
 20
228.8126361977
 30
0.0
  0
SPLINE
  5
403
100
AcDbEntity
  8
0
100
AcDbSpline
 62
7
  6
CONTINUOUS
 70
0
 71
3
 72
8
 73
4
 74
0
 42
0.0000001
 43
0.0000001
 44
0.0000000001
 40
0.0
 40
0.0
 40
0.0
 40
0.0
 40
1.0
 40
1.0
 40
1.0
 40
1.0
 10
104.2357367328
 20
224.2671198406
 30
0.0
 10
104.1894290051
 20
224.269284598
 30
0.0
 10
104.1430853667
 20
224.2741965443
 30
0.0
 10
104.0975726315
 20
224.2830103267
 30
0.0
  0
SPLINE
  5
404
100
AcDbEntity
  8
0
100
AcDbSpline
 62
7
  6
CONTINUOUS
 70
0
 71
3
 72
8
 73
4
 74
0
 42
0.0000001
 43
0.0000001
 44
0.0000000001
 40
0.0
 40
0.0
 40
0.0
 40
0.0
 40
1.0
 40
1.0
 40
1.0
 40
1.0
 10
150.0805455853
 20
262.2966825652
 30
0.0
 10
150.0234327518
 20
262.3035260338
 30
0.0
 10
149.9623393367
 20
262.296020617
 30
0.0
 10
149.9096090971
 20
262.2730373482
 30
0.0
  0
SPLINE
  5
405
100
AcDbEntity
  8
0
100
AcDbSpline
 62
7
  6
CONTINUOUS
 70
0
 71
3
 72
8
 73
4
 74
0
 42
0.0000001
 43
0.0000001
 44
0.0000000001
 40
0.0
 40
0.0
 40
0.0
 40
0.0
 40
1.0
 40
1.0
 40
1.0
 40
1.0
 10
157.3939565232
 20
260.4507121803
 30
0.0
 10
157.3940123496
 20
260.5278811614
 30
0.0
 10
157.374603633
 20
260.6064951751
 30
0.0
 10
157.3414782329
 20
260.6761928265
 30
0.0
  0
SPLINE
  5
406
100
AcDbEntity
  8
0
100
AcDbSpline
 62
7
  6
CONTINUOUS
 70
0
 71
3
 72
8
 73
4
 74
0
 42
0.0000001
 43
0.0000001
 44
0.0000000001
 40
0.0
 40
0.0
 40
0.0
 40
0.0
 40
1.0
 40
1.0
 40
1.0
 40
1.0
 10
157.3414782329
 20
260.6761928265
 30
0.0
 10
157.3079104178
 20
260.7468213432
 30
0.0
 10
157.2581515432
 20
260.8119218352
 30
0.0
 10
157.1977933861
 20
260.8616418357
 30
0.0
  0
SPLINE
  5
407
100
AcDbEntity
  8
0
100
AcDbSpline
 62
7
  6
CONTINUOUS
 70
0
 71
3
 72
8
 73
4
 74
0
 42
0.0000001
 43
0.0000001
 44
0.0000000001
 40
0.0
 40
0.0
 40
0.0
 40
0.0
 40
1.0
 40
1.0
 40
1.0
 40
1.0
 10
157.1977933861
 20
260.8616418357
 30
0.0
 10
157.1415826252
 20
260.9079454207
 30
0.0
 10
157.0729002002
 20
260.9435223331
 30
0.0
 10
157.0014022215
 20
260.9573682956
 30
0.0
  0
SPLINE
  5
408
100
AcDbEntity
  8
0
100
AcDbSpline
 62
7
  6
CONTINUOUS
 70
0
 71
3
 72
8
 73
4
 74
0
 42
0.0000001
 43
0.0000001
 44
0.0000000001
 40
0.0
 40
0.0
 40
0.0
 40
0.0
 40
1.0
 40
1.0
 40
1.0
 40
1.0
 10
157.1973487183
 20
252.1480351054
 30
0.0
 10
157.2437857763
 20
252.1694838246
 30
0.0
 10
157.2855157577
 20
252.2043295163
 30
0.0
 10
157.3158827682
 20
252.2454913018
 30
0.0
  0
SPLINE
  5
409
100
AcDbEntity
  8
0
100
AcDbSpline
 62
7
  6
CONTINUOUS
 70
0
 71
3
 72
8
 73
4
 74
0
 42
0.0000001
 43
0.0000001
 44
0.0000000001
 40
0.0
 40
0.0
 40
0.0
 40
0.0
 40
1.0
 40
1.0
 40
1.0
 40
1.0
 10
157.3354006728
 20
252.2751588198
 30
0.0
 10
157.3678952746
 20
252.3307726426
 30
0.0
 10
157.3849829936
 20
252.3968095438
 30
0.0
 10
157.3877704987
 20
252.4611603499
 30
0.0
  0
SPLINE
  5
40A
100
AcDbEntity
  8
0
100
AcDbSpline
 62
7
  6
CONTINUOUS
 70
0
 71
3
 72
8
 73
4
 74
0
 42
0.0000001
 43
0.0000001
 44
0.0000000001
 40
0.0
 40
0.0
 40
0.0
 40
0.0
 40
1.0
 40
1.0
 40
1.0
 40
1.0
 10
97.470884959
 20
224.5742852835
 30
0.0
 10
97.4198225628
 20
224.5841737872
 30
0.0
 10
97.3702527493
 20
224.605409216
 30
0.0
 10
97.3266024907
 20
224.6336900529
 30
0.0
  0
SPLINE
  5
40B
100
AcDbEntity
  8
0
100
AcDbSpline
 62
7
  6
CONTINUOUS
 70
0
 71
3
 72
8
 73
4
 74
0
 42
0.0000001
 43
0.0000001
 44
0.0000000001
 40
0.0
 40
0.0
 40
0.0
 40
0.0
 40
1.0
 40
1.0
 40
1.0
 40
1.0
 10
97.3266024907
 20
224.6336900529
 30
0.0
 10
97.3034847464
 20
224.6486679518
 30
0.0
 10
97.2816434604
 20
224.6657862201
 30
0.0
 10
97.2614366283
 20
224.6845065699
 30
0.0
  0
SPLINE
  5
40C
100
AcDbEntity
  8
0
100
AcDbSpline
 62
7
  6
CONTINUOUS
 70
0
 71
3
 72
8
 73
4
 74
0
 42
0.0000001
 43
0.0000001
 44
0.0000000001
 40
0.0
 40
0.0
 40
0.0
 40
0.0
 40
1.0
 40
1.0
 40
1.0
 40
1.0
 10
97.2614366283
 20
224.6845065699
 30
0.0
 10
97.2059079823
 20
224.7359503422
 30
0.0
 10
97.1611560615
 20
224.8013505891
 30
0.0
 10
97.1324006252
 20
224.8713721367
 30
0.0
  0
SPLINE
  5
40D
100
AcDbEntity
  8
0
100
AcDbSpline
 62
7
  6
CONTINUOUS
 70
0
 71
3
 72
8
 73
4
 74
0
 42
0.0000001
 43
0.0000001
 44
0.0000000001
 40
0.0
 40
0.0
 40
0.0
 40
0.0
 40
1.0
 40
1.0
 40
1.0
 40
1.0
 10
104.5902063197
 20
222.8435131955
 30
0.0
 10
104.5212540226
 20
222.7959638976
 30
0.0
 10
104.4257131882
 20
222.7799875269
 30
0.0
 10
104.3434831908
 20
222.7959118017
 30
0.0
  0
SPLINE
  5
40E
100
AcDbEntity
  8
0
100
AcDbSpline
 62
7
  6
CONTINUOUS
 70
0
 71
3
 72
8
 73
4
 74
0
 42
0.0000001
 43
0.0000001
 44
0.0000000001
 40
0.0
 40
0.0
 40
0.0
 40
0.0
 40
1.0
 40
1.0
 40
1.0
 40
1.0
 10
104.370124779
 20
231.623003232
 30
0.0
 10
104.4342328037
 20
231.6068263531
 30
0.0
 10
104.4952307834
 20
231.5738330179
 30
0.0
 10
104.5462634068
 20
231.5317949209
 30
0.0
  0
SPLINE
  5
40F
100
AcDbEntity
  8
0
100
AcDbSpline
 62
7
  6
CONTINUOUS
 70
0
 71
3
 72
8
 73
4
 74
0
 42
0.0000001
 43
0.0000001
 44
0.0000000001
 40
0.0
 40
0.0
 40
0.0
 40
0.0
 40
1.0
 40
1.0
 40
1.0
 40
1.0
 10
104.5462634068
 20
231.5317949209
 30
0.0
 10
104.6066215638
 20
231.4820749204
 30
0.0
 10
104.6563804385
 20
231.4169744284
 30
0.0
 10
104.6899482536
 20
231.3463459117
 30
0.0
  0
SPLINE
  5
410
100
AcDbEntity
  8
0
100
AcDbSpline
 62
7
  6
CONTINUOUS
 70
0
 71
3
 72
8
 73
4
 74
0
 42
0.0000001
 43
0.0000001
 44
0.0000000001
 40
0.0
 40
0.0
 40
0.0
 40
0.0
 40
1.0
 40
1.0
 40
1.0
 40
1.0
 10
104.6899482536
 20
231.3463459117
 30
0.0
 10
104.7212853414
 20
231.2804109671
 30
0.0
 10
104.7402591005
 20
231.2066507823
 30
0.0
 10
104.7422551212
 20
231.1336751295
 30
0.0
  0
SPLINE
  5
411
100
AcDbEntity
  8
0
100
AcDbSpline
 62
7
  6
CONTINUOUS
 70
0
 71
3
 72
8
 73
4
 74
0
 42
0.0000001
 43
0.0000001
 44
0.0000000001
 40
0.0
 40
0.0
 40
0.0
 40
0.0
 40
1.0
 40
1.0
 40
1.0
 40
1.0
 10
97.0613764619
 20
232.608341321
 30
0.0
 10
97.0613996054
 20
232.640332722
 30
0.0
 10
97.0648496548
 20
232.6725227033
 30
0.0
 10
97.0718189433
 20
232.7037457604
 30
0.0
  0
SPLINE
  5
412
100
AcDbEntity
  8
0
100
AcDbSpline
 62
7
  6
CONTINUOUS
 70
0
 71
3
 72
8
 73
4
 74
0
 42
0.0000001
 43
0.0000001
 44
0.0000000001
 40
0.0
 40
0.0
 40
0.0
 40
0.0
 40
1.0
 40
1.0
 40
1.0
 40
1.0
 10
97.0718189433
 20
232.7037457604
 30
0.0
 10
97.0828909468
 20
232.7533493599
 30
0.0
 10
97.1035112425
 20
232.8022050842
 30
0.0
 10
97.1336841482
 20
232.8431037651
 30
0.0
  0
SPLINE
  5
413
100
AcDbEntity
  8
0
100
AcDbSpline
 62
9
  6
CONTINUOUS
 70
0
 71
3
 72
8
 73
4
 74
0
 42
0.0000001
 43
0.0000001
 44
0.0000000001
 40
0.0
 40
0.0
 40
0.0
 40
0.0
 40
1.0
 40
1.0
 40
1.0
 40
1.0
 10
157.1858162468
 20
252.1616628675
 30
0.0
 10
157.2460830108
 20
252.1952431928
 30
0.0
 10
157.2951285591
 20
252.2543474302
 30
0.0
 10
157.3211850914
 20
252.3182283994
 30
0.0
  0
SPLINE
  5
414
100
AcDbEntity
  8
0
100
AcDbSpline
 62
9
  6
CONTINUOUS
 70
0
 71
3
 72
8
 73
4
 74
0
 42
0.0000001
 43
0.0000001
 44
0.0000000001
 40
0.0
 40
0.0
 40
0.0
 40
0.0
 40
1.0
 40
1.0
 40
1.0
 40
1.0
 10
157.3211850914
 20
252.3182283994
 30
0.0
 10
157.3407358189
 20
252.3661595443
 30
0.0
 10
157.3499661703
 20
252.419061225
 30
0.0
 10
157.3500036187
 20
252.4708263116
 30
0.0
  0
SPLINE
  5
415
100
AcDbEntity
  8
0
100
AcDbSpline
 62
9
  6
CONTINUOUS
 70
0
 71
3
 72
8
 73
4
 74
0
 42
0.0000001
 43
0.0000001
 44
0.0000000001
 40
0.0
 40
0.0
 40
0.0
 40
0.0
 40
1.0
 40
1.0
 40
1.0
 40
1.0
 10
157.3500036187
 20
252.4708263116
 30
0.0
 10
157.3614574882
 20
252.4772067575
 30
0.0
 10
157.3751257948
 20
252.4791510747
 30
0.0
 10
157.3881904544
 20
252.4802537459
 30
0.0
  0
SPLINE
  5
416
100
AcDbEntity
  8
0
100
AcDbSpline
 62
9
  6
CONTINUOUS
 70
0
 71
3
 72
8
 73
4
 74
0
 42
0.0000001
 43
0.0000001
 44
0.0000000001
 40
0.0
 40
0.0
 40
0.0
 40
0.0
 40
1.0
 40
1.0
 40
1.0
 40
1.0
 10
157.3502598885
 20
252.8250689087
 30
0.0
 10
157.3617137579
 20
252.8314493546
 30
0.0
 10
157.3753820645
 20
252.8333936718
 30
0.0
 10
157.3884467241
 20
252.834496343
 30
0.0
  0
SPLINE
  5
417
100
AcDbEntity
  8
0
100
AcDbSpline
 62
9
  6
CONTINUOUS
 70
0
 71
3
 72
8
 73
4
 74
0
 42
0.0000001
 43
0.0000001
 44
0.0000000001
 40
0.0
 40
0.0
 40
0.0
 40
0.0
 40
1.0
 40
1.0
 40
1.0
 40
1.0
 10
157.3557696875
 20
260.441284746
 30
0.0
 10
157.367223557
 20
260.4476651919
 30
0.0
 10
157.3808918636
 20
260.4496095091
 30
0.0
 10
157.3939565232
 20
260.4507121803
 30
0.0
  0
SPLINE
  5
418
100
AcDbEntity
  8
0
100
AcDbSpline
 62
9
  6
CONTINUOUS
 70
0
 71
3
 72
8
 73
4
 74
0
 42
0.0000001
 43
0.0000001
 44
0.0000000001
 40
0.0
 40
0.0
 40
0.0
 40
0.0
 40
1.0
 40
1.0
 40
1.0
 40
1.0
 10
157.3557696875
 20
260.441284746
 30
0.0
 10
157.3558097638
 20
260.4966823613
 30
0.0
 10
157.3455266108
 20
260.5527286683
 30
0.0
 10
157.3271799906
 20
260.605000065
 30
0.0
  0
SPLINE
  5
419
100
AcDbEntity
  8
0
100
AcDbSpline
 62
9
  6
CONTINUOUS
 70
0
 71
3
 72
9
 73
5
 74
0
 42
0.0000001
 43
0.0000001
 44
0.0000000001
 40
0.0
 40
0.0
 40
0.0
 40
0.0
 40
0.2632575105
 40
1.0
 40
1.0
 40
1.0
 40
1.0
 10
157.2455346602
 20
260.7549085173
 30
0.0
 10
157.2282657505
 20
260.7771968953
 30
0.0
 10
157.1563337593
 20
260.8564756726
 30
0.0
 10
157.0564485958
 20
260.912590791
 30
0.0
 10
156.9789809386
 20
260.9275928133
 30
0.0
  0
SPLINE
  5
41A
100
AcDbEntity
  8
0
100
AcDbSpline
 62
9
  6
CONTINUOUS
 70
0
 71
3
 72
9
 73
5
 74
0
 42
0.0000001
 43
0.0000001
 44
0.0000000001
 40
0.0
 40
0.0
 40
0.0
 40
0.0
 40
0.44065656
 40
1.0
 40
1.0
 40
1.0
 40
1.0
 10
156.9789809386
 20
260.9275928133
 30
0.0
 10
156.9838187391
 20
260.9302877387
 30
0.0
 10
156.9926744897
 20
260.9398143792
 30
0.0
 10
156.9987146872
 20
260.9508730248
 30
0.0
 10
157.0014022215
 20
260.9573682956
 30
0.0
  0
SPLINE
  5
41B
100
AcDbEntity
  8
0
100
AcDbSpline
 62
9
  6
CONTINUOUS
 70
0
 71
3
 72
9
 73
5
 74
0
 42
0.0000001
 43
0.0000001
 44
0.0000000001
 40
0.0
 40
0.0
 40
0.0
 40
0.0
 40
0.44065656
 40
1.0
 40
1.0
 40
1.0
 40
1.0
 10
150.0836624426
 20
262.262907783
 30
0.0
 10
150.088500243
 20
262.2656027084
 30
0.0
 10
150.0973559937
 20
262.2751293489
 30
0.0
 10
150.1033961912
 20
262.2861879945
 30
0.0
 10
150.1060837255
 20
262.2926832653
 30
0.0
  0
SPLINE
  5
41C
100
AcDbEntity
  8
0
100
AcDbSpline
 62
9
  6
CONTINUOUS
 70
0
 71
3
 72
8
 73
4
 74
0
 42
0.0000001
 43
0.0000001
 44
0.0000000001
 40
0.0
 40
0.0
 40
0.0
 40
0.0
 40
1.0
 40
1.0
 40
1.0
 40
1.0
 10
150.0836624426
 20
262.262907783
 30
0.0
 10
150.0364166055
 20
262.2720571898
 30
0.0
 10
149.9859147302
 20
262.2714834006
 30
0.0
 10
149.939334414
 20
262.2593939463
 30
0.0
  0
SPLINE
  5
41D
100
AcDbEntity
  8
02___PRT_ALL_AXES
100
AcDbSpline
 62
3
  6
CONTINUOUS
 70
0
 71
3
 72
8
 73
4
 74
0
 42
0.0000001
 43
0.0000001
 44
0.0000000001
 40
0.0
 40
0.0
 40
0.0
 40
0.0
 40
1.0
 40
1.0
 40
1.0
 40
1.0
 10
104.1325443457
 20
224.5250126045
 30
0.0
 10
104.2081750762
 20
224.5103663127
 30
0.0
 10
104.2883325971
 20
224.5105655085
 30
0.0
 10
104.3636452083
 20
224.526768343
 30
0.0
  0
SPLINE
  5
41E
100
AcDbEntity
  8
02___PRT_ALL_AXES
100
AcDbSpline
 62
3
  6
CONTINUOUS
 70
0
 71
3
 72
9
 73
5
 74
0
 42
0.0000001
 43
0.0000001
 44
0.0000000001
 40
0.0
 40
0.0
 40
0.0
 40
0.0
 40
0.6692393531
 40
1.0
 40
1.0
 40
1.0
 40
1.0
 10
104.0247388728
 20
224.5869580018
 30
0.0
 10
104.0247022893
 20
224.57453527
 30
0.0
 10
104.0404363805
 20
224.5582652819
 30
0.0
 10
104.0562077988
 20
224.5496726071
 30
0.0
 10
104.0617225406
 20
224.5469736688
 30
0.0
  0
SPLINE
  5
41F
100
AcDbEntity
  8
02___PRT_ALL_AXES
100
AcDbSpline
 62
3
  6
CONTINUOUS
 70
0
 71
3
 72
8
 73
4
 74
0
 42
0.0000001
 43
0.0000001
 44
0.0000000001
 40
0.0
 40
0.0
 40
0.0
 40
0.0
 40
1.0
 40
1.0
 40
1.0
 40
1.0
 10
104.0617225406
 20
224.5469736688
 30
0.0
 10
104.0839226745
 20
224.5361088279
 30
0.0
 10
104.1082789593
 20
224.5297117252
 30
0.0
 10
104.1325443457
 20
224.5250126045
 30
0.0
  0
SPLINE
  5
420
100
AcDbEntity
  8
0
100
AcDbSpline
 62
3
  6
CONTINUOUS
 70
0
 71
3
 72
9
 73
5
 74
0
 42
0.0000001
 43
0.0000001
 44
0.0000000001
 40
0.0
 40
0.0
 40
0.0
 40
0.0
 40
0.2357448109
 40
1.0
 40
1.0
 40
1.0
 40
1.0
 10
104.0976751394
 20
224.4247073655
 30
0.0
 10
104.1180729637
 20
224.4207572187
 30
0.0
 10
104.2052558482
 20
224.4075396594
 30
0.0
 10
104.2940535585
 20
224.4055775692
 30
0.0
 10
104.3612683779
 20
224.4099324035
 30
0.0
  0
SPLINE
  5
421
100
AcDbEntity
  8
0
100
AcDbSpline
 62
3
  6
CONTINUOUS
 70
0
 71
3
 72
8
 73
4
 74
0
 42
0.0000001
 43
0.0000001
 44
0.0000000001
 40
0.0
 40
0.0
 40
0.0
 40
0.0
 40
1.0
 40
1.0
 40
1.0
 40
1.0
 10
101.4954342878
 20
224.9995035425
 30
0.0
 10
101.5162867958
 20
224.9558209523
 30
0.0
 10
101.559827436
 20
224.916175023
 30
0.0
 10
101.6073490523
 20
224.9069722102
 30
0.0
  0
SPLINE
  5
422
100
AcDbEntity
  8
02___PRT_ALL_AXES
100
AcDbSpline
 62
3
  6
CONTINUOUS
 70
0
 71
3
 72
10
 73
6
 74
0
 42
0.0000001
 43
0.0000001
 44
0.0000000001
 40
0.0
 40
0.0
 40
0.0
 40
0.0
 40
0.6256078052
 40
0.8672850585
 40
1.0
 40
1.0
 40
1.0
 40
1.0
 10
104.3543798801
 20
224.648587404
 30
0.0
 10
104.2825566567
 20
224.6624963519
 30
0.0
 10
104.1760870286
 20
224.6599718095
 30
0.0
 10
104.0665163003
 20
224.6355968618
 30
0.0
 10
104.0247845755
 20
224.6024774123
 30
0.0
 10
104.0247388728
 20
224.5869580018
 30
0.0
  0
SPLINE
  5
423
100
AcDbEntity
  8
0
100
AcDbSpline
 62
3
  6
CONTINUOUS
 70
0
 71
3
 72
8
 73
4
 74
0
 42
0.0000001
 43
0.0000001
 44
0.0000000001
 40
0.0
 40
0.0
 40
0.0
 40
0.0
 40
1.0
 40
1.0
 40
1.0
 40
1.0
 10
99.7981977081
 20
228.7750675064
 30
0.0
 10
99.7938749885
 20
228.7568936914
 30
0.0
 10
99.7912951017
 20
228.7382566965
 30
0.0
 10
99.790087686
 20
228.7196149261
 30
0.0
  0
SPLINE
  5
424
100
AcDbEntity
  8
0
100
AcDbSpline
 62
3
  6
CONTINUOUS
 70
0
 71
3
 72
8
 73
4
 74
0
 42
0.0000001
 43
0.0000001
 44
0.0000000001
 40
0.0
 40
0.0
 40
0.0
 40
0.0
 40
1.0
 40
1.0
 40
1.0
 40
1.0
 10
99.790087686
 20
228.7196149261
 30
0.0
 10
99.7872199065
 20
228.6753381424
 30
0.0
 10
99.791831332
 20
228.6303364793
 30
0.0
 10
99.8012272273
 20
228.5869731897
 30
0.0
  0
SPLINE
  5
425
100
AcDbEntity
  8
0
100
AcDbSpline
 62
3
  6
CONTINUOUS
 70
0
 71
3
 72
8
 73
4
 74
0
 42
0.0000001
 43
0.0000001
 44
0.0000000001
 40
0.0
 40
0.0
 40
0.0
 40
0.0
 40
1.0
 40
1.0
 40
1.0
 40
1.0
 10
99.8012272273
 20
228.5869731897
 30
0.0
 10
99.8114870158
 20
228.5396229195
 30
0.0
 10
99.8276417832
 20
228.4932557792
 30
0.0
 10
99.8485134865
 20
228.4495329781
 30
0.0
  0
SPLINE
  5
426
100
AcDbEntity
  8
0
100
AcDbSpline
 62
3
  6
CONTINUOUS
 70
0
 71
3
 72
9
 73
5
 74
0
 42
0.0000001
 43
0.0000001
 44
0.0000000001
 40
0.0
 40
0.0
 40
0.0
 40
0.0
 40
0.0859869299
 40
1.0
 40
1.0
 40
1.0
 40
1.0
 10
104.2891323702
 20
231.2522320957
 30
0.0
 10
104.288517959
 20
231.2523510797
 30
0.0
 10
104.3025091968
 20
231.2467171043
 30
0.0
 10
104.3024589848
 20
231.2448381172
 30
0.0
 10
104.3076307275
 20
231.2406540348
 30
0.0
  0
SPLINE
  5
427
100
AcDbEntity
  8
0
100
AcDbSpline
 62
3
  6
CONTINUOUS
 70
0
 71
3
 72
8
 73
4
 74
0
 42
0.0000001
 43
0.0000001
 44
0.0000000001
 40
0.0
 40
0.0
 40
0.0
 40
0.0
 40
1.0
 40
1.0
 40
1.0
 40
1.0
 10
97.4173142646
 20
224.9980004617
 30
0.0
 10
97.3951236922
 20
224.9856390718
 30
0.0
 10
97.3712265438
 20
224.9762976913
 30
0.0
 10
97.3470500506
 20
224.9685052179
 30
0.0
  0
SPLINE
  5
428
100
AcDbEntity
  8
0
100
AcDbSpline
 62
3
  6
CONTINUOUS
 70
0
 71
3
 72
9
 73
5
 74
0
 42
0.0000001
 43
0.0000001
 44
0.0000000001
 40
0.0
 40
0.0
 40
0.0
 40
0.0
 40
0.2244038531
 40
1.0
 40
1.0
 40
1.0
 40
1.0
 10
97.3470500506
 20
224.9685052179
 30
0.0
 10
97.3327655015
 20
224.9639010774
 30
0.0
 10
97.2682861768
 20
224.9459550703
 30
0.0
 10
97.2016947972
 20
224.9363709758
 30
0.0
 10
97.1500064149
 20
224.9320084212
 30
0.0
  0
SPLINE
  5
429
100
AcDbEntity
  8
0
100
AcDbSpline
 62
3
  6
CONTINUOUS
 70
0
 71
3
 72
8
 73
4
 74
0
 42
0.0000001
 43
0.0000001
 44
0.0000000001
 40
0.0
 40
0.0
 40
0.0
 40
0.0
 40
1.0
 40
1.0
 40
1.0
 40
1.0
 10
97.4169725717
 20
224.5256769989
 30
0.0
 10
97.3955347481
 20
224.5137349322
 30
0.0
 10
97.3764263457
 20
224.4974237072
 30
0.0
 10
97.3595471229
 20
224.4796112095
 30
0.0
  0
SPLINE
  5
42A
100
AcDbEntity
  8
0
100
AcDbSpline
 62
3
  6
CONTINUOUS
 70
0
 71
3
 72
9
 73
5
 74
0
 42
0.0000001
 43
0.0000001
 44
0.0000000001
 40
0.0
 40
0.0
 40
0.0
 40
0.0
 40
0.2235280766
 40
1.0
 40
1.0
 40
1.0
 40
1.0
 10
97.3595471229
 20
224.4796112095
 30
0.0
 10
97.3497557603
 20
224.4692784693
 30
0.0
 10
97.308961287
 20
224.4202073382
 30
0.0
 10
97.2789292936
 20
224.3629401908
 30
0.0
 10
97.2600235914
 20
224.3172486232
 30
0.0
  0
SPLINE
  5
42B
100
AcDbEntity
  8
0
100
AcDbSpline
 62
3
  6
CONTINUOUS
 70
0
 71
3
 72
8
 73
4
 74
0
 42
0.0000001
 43
0.0000001
 44
0.0000000001
 40
0.0
 40
0.0
 40
0.0
 40
0.0
 40
1.0
 40
1.0
 40
1.0
 40
1.0
 10
97.4711412288
 20
224.9285278806
 30
0.0
 10
97.4423805463
 20
224.9340975392
 30
0.0
 10
97.4172930717
 20
224.9687054535
 30
0.0
 10
97.4173142646
 20
224.9980004617
 30
0.0
  0
SPLINE
  5
42C
100
AcDbEntity
  8
0
100
AcDbSpline
 62
9
  6
CONTINUOUS
 70
0
 71
3
 72
8
 73
4
 74
0
 42
0.0000001
 43
0.0000001
 44
0.0000000001
 40
0.0
 40
0.0
 40
0.0
 40
0.0
 40
1.0
 40
1.0
 40
1.0
 40
1.0
 10
97.3938129476
 20
232.5875422806
 30
0.0
 10
97.3646320614
 20
232.5931930698
 30
0.0
 10
97.3379748668
 20
232.613840489
 30
0.0
 10
97.3199198984
 20
232.637451369
 30
0.0
  0
SPLINE
  5
42D
100
AcDbEntity
  8
0
100
AcDbSpline
 62
9
  6
CONTINUOUS
 70
0
 71
3
 72
8
 73
4
 74
0
 42
0.0000001
 43
0.0000001
 44
0.0000000001
 40
0.0
 40
0.0
 40
0.0
 40
0.0
 40
1.0
 40
1.0
 40
1.0
 40
1.0
 10
104.2891314436
 20
231.2522273109
 30
0.0
 10
104.2599505574
 20
231.2578781001
 30
0.0
 10
104.2332933629
 20
231.2785255193
 30
0.0
 10
104.2152383944
 20
231.3021363993
 30
0.0
  0
SPLINE
  5
42E
100
AcDbEntity
  8
0
100
AcDbSpline
 62
9
  6
CONTINUOUS
 70
0
 71
3
 72
8
 73
4
 74
0
 42
0.0000001
 43
0.0000001
 44
0.0000000001
 40
0.0
 40
0.0
 40
0.0
 40
0.0
 40
1.0
 40
1.0
 40
1.0
 40
1.0
 10
97.4227813521
 20
232.5551758661
 30
0.0
 10
97.4005907797
 20
232.5428144762
 30
0.0
 10
97.3766936313
 20
232.5334730958
 30
0.0
 10
97.3525171381
 20
232.5256806223
 30
0.0
  0
SPLINE
  5
42F
100
AcDbEntity
  8
0
100
AcDbSpline
 62
9
  6
CONTINUOUS
 70
0
 71
3
 72
8
 73
4
 74
0
 42
0.0000001
 43
0.0000001
 44
0.0000000001
 40
0.0
 40
0.0
 40
0.0
 40
0.0
 40
1.0
 40
1.0
 40
1.0
 40
1.0
 10
97.3525171381
 20
232.5256806223
 30
0.0
 10
97.3227228455
 20
232.5160774416
 30
0.0
 10
97.2921242509
 20
232.5088693951
 30
0.0
 10
97.2613434085
 20
232.5031719663
 30
0.0
  0
SPLINE
  5
430
100
AcDbEntity
  8
0
100
AcDbSpline
 62
9
  6
CONTINUOUS
 70
0
 71
3
 72
8
 73
4
 74
0
 42
0.0000001
 43
0.0000001
 44
0.0000000001
 40
0.0
 40
0.0
 40
0.0
 40
0.0
 40
1.0
 40
1.0
 40
1.0
 40
1.0
 10
97.2613434085
 20
232.5031719663
 30
0.0
 10
97.2263412901
 20
232.4966931936
 30
0.0
 10
97.1909440568
 20
232.4921775783
 30
0.0
 10
97.1554735023
 20
232.4891838256
 30
0.0
  0
SPLINE
  5
431
100
AcDbEntity
  8
0
100
AcDbSpline
 62
3
  6
CONTINUOUS
 70
0
 71
3
 72
8
 73
4
 74
0
 42
0.0000001
 43
0.0000001
 44
0.0000000001
 40
0.0
 40
0.0
 40
0.0
 40
0.0
 40
1.0
 40
1.0
 40
1.0
 40
1.0
 10
104.3736581592
 20
223.1197690486
 30
0.0
 10
104.3736367995
 20
223.0902434211
 30
0.0
 10
104.3664741387
 20
223.0594810968
 30
0.0
 10
104.3515788335
 20
223.0339880974
 30
0.0
  0
SPLINE
  5
432
100
AcDbEntity
  8
0
100
AcDbSpline
 62
3
  6
CONTINUOUS
 70
0
 71
3
 72
8
 73
4
 74
0
 42
0.0000001
 43
0.0000001
 44
0.0000000001
 40
0.0
 40
0.0
 40
0.0
 40
0.0
 40
1.0
 40
1.0
 40
1.0
 40
1.0
 10
104.3515788335
 20
223.0339880974
 30
0.0
 10
104.3254335238
 20
222.9892409535
 30
0.0
 10
104.2600919953
 20
222.9616482787
 30
0.0
 10
104.2092117632
 20
222.9715015053
 30
0.0
  0
SPLINE
  5
433
100
AcDbEntity
  8
0
100
AcDbSpline
 62
3
  6
CONTINUOUS
 70
0
 71
3
 72
8
 73
4
 74
0
 42
0.0000001
 43
0.0000001
 44
0.0000000001
 40
0.0
 40
0.0
 40
0.0
 40
0.0
 40
1.0
 40
1.0
 40
1.0
 40
1.0
 10
104.2152383944
 20
231.3021363993
 30
0.0
 10
104.2756354487
 20
231.2904401896
 30
0.0
 10
104.3310676062
 20
231.2400977469
 30
0.0
 10
104.3574751835
 20
231.1845347615
 30
0.0
  0
SPLINE
  5
434
100
AcDbEntity
  8
0
100
AcDbSpline
 62
3
  6
CONTINUOUS
 70
0
 71
3
 72
8
 73
4
 74
0
 42
0.0000001
 43
0.0000001
 44
0.0000000001
 40
0.0
 40
0.0
 40
0.0
 40
0.0
 40
1.0
 40
1.0
 40
1.0
 40
1.0
 10
104.3759111444
 20
231.1277180573
 30
0.0
 10
104.3781904003
 20
231.1153751338
 30
0.0
 10
104.3794333083
 20
231.102779084
 30
0.0
 10
104.3794242281
 20
231.090227483
 30
0.0
  0
SPLINE
  5
435
100
AcDbEntity
  8
0
100
AcDbSpline
 62
9
  6
CONTINUOUS
 70
0
 71
3
 72
8
 73
4
 74
0
 42
0.0000001
 43
0.0000001
 44
0.0000000001
 40
0.0
 40
0.0
 40
0.0
 40
0.0
 40
1.0
 40
1.0
 40
1.0
 40
1.0
 10
104.3661607434
 20
223.179929881
 30
0.0
 10
104.3447229199
 20
223.1679878143
 30
0.0
 10
104.3256145175
 20
223.1516765893
 30
0.0
 10
104.3087352947
 20
223.1338640916
 30
0.0
  0
SPLINE
  5
436
100
AcDbEntity
  8
0
100
AcDbSpline
 62
9
  6
CONTINUOUS
 70
0
 71
3
 72
8
 73
4
 74
0
 42
0.0000001
 43
0.0000001
 44
0.0000000001
 40
0.0
 40
0.0
 40
0.0
 40
0.0
 40
1.0
 40
1.0
 40
1.0
 40
1.0
 10
104.3087352947
 20
223.1338640916
 30
0.0
 10
104.2883312499
 20
223.1123318798
 30
0.0
 10
104.2707005656
 20
223.0880670096
 30
0.0
 10
104.2552029204
 20
223.0627730542
 30
0.0
  0
SPLINE
  5
437
100
AcDbEntity
  8
0
100
AcDbSpline
 62
9
  6
CONTINUOUS
 70
0
 71
3
 72
8
 73
4
 74
0
 42
0.0000001
 43
0.0000001
 44
0.0000000001
 40
0.0
 40
0.0
 40
0.0
 40
0.0
 40
1.0
 40
1.0
 40
1.0
 40
1.0
 10
104.2552029204
 20
223.0627730542
 30
0.0
 10
104.2374045146
 20
223.0337239905
 30
0.0
 10
104.2222370609
 20
223.0029812285
 30
0.0
 10
104.2092117632
 20
222.9715015053
 30
0.0
  0
SPLINE
  5
438
100
AcDbEntity
  8
0
100
AcDbSpline
 62
3
  6
CONTINUOUS
 70
0
 71
3
 72
8
 73
4
 74
0
 42
0.0000001
 43
0.0000001
 44
0.0000000001
 40
0.0
 40
0.0
 40
0.0
 40
0.0
 40
1.0
 40
1.0
 40
1.0
 40
1.0
 10
97.1554735023
 20
232.4891838256
 30
0.0
 10
97.1554948621
 20
232.5187094532
 30
0.0
 10
97.1626575229
 20
232.5494717775
 30
0.0
 10
97.1775528281
 20
232.5749647769
 30
0.0
  0
SPLINE
  5
439
100
AcDbEntity
  8
0
100
AcDbSpline
 62
3
  6
CONTINUOUS
 70
0
 71
3
 72
8
 73
4
 74
0
 42
0.0000001
 43
0.0000001
 44
0.0000000001
 40
0.0
 40
0.0
 40
0.0
 40
0.0
 40
1.0
 40
1.0
 40
1.0
 40
1.0
 10
97.1775528281
 20
232.5749647769
 30
0.0
 10
97.191181478
 20
232.5982899226
 30
0.0
 10
97.2129796821
 20
232.618440395
 30
0.0
 10
97.2377443866
 20
232.6292344643
 30
0.0
  0
SPLINE
  5
43A
100
AcDbEntity
  8
0
100
AcDbSpline
 62
3
  6
CONTINUOUS
 70
0
 71
3
 72
8
 73
4
 74
0
 42
0.0000001
 43
0.0000001
 44
0.0000000001
 40
0.0
 40
0.0
 40
0.0
 40
0.0
 40
1.0
 40
1.0
 40
1.0
 40
1.0
 10
97.2377443866
 20
232.6292344643
 30
0.0
 10
97.2629798906
 20
232.6402337386
 30
0.0
 10
97.2928935755
 20
232.6426851596
 30
0.0
 10
97.3199198984
 20
232.637451369
 30
0.0
  0
ENDSEC
  0
SECTION
  2
OBJECTS
  0
DICTIONARY
  5
C
100
AcDbDictionary
280
0
281
1
  3
ACAD_GROUP
350
D
  3
ACAD_MLINESTYLE
350
17
  3
ACAD_LAYOUT
350
1A
  3
ACAD_PLOTSETTINGS
350
19
  3
ACAD_PLOTSTYLENAME
350
E
  0
DICTIONARY
  5
D
102
{ACAD_REACTORS
330
C
102
}
100
AcDbDictionary
280
0
281
1
  0
ACDBDICTIONARYWDFLT
  5
E
102
{ACAD_REACTORS
330
C
102
}
100
AcDbDictionary
281
1
  3
Normal
350
F
100
AcDbDictionaryWithDefault
340
F
  0
DICTIONARY
  5
17
102
{ACAD_REACTORS
330
C
102
}
100
AcDbDictionary
280
0
281
1
  3
Standard
350
18
  0
DICTIONARY
  5
19
102
{ACAD_REACTORS
330
C
102
}
100
AcDbDictionary
281
1
  0
DICTIONARY
  5
1A
102
{ACAD_REACTORS
330
C
102
}
100
AcDbDictionary
281
1
  3
Model
350
43B
  3
Layout1
350
43C
  0
ACDBPLACEHOLDER
  5
F
102
{ACAD_REACTORS
330
E
102
}
  0
MLINESTYLE
  5
18
102
{ACAD_REACTORS
330
17
102
}
100
AcDbMlineStyle
  2
STANDARD
 70
0
  3

 62
256
 51
90.0
 52
90.0
 71
2
 49
0.5
 62
256
  6
BYLAYER
 49
-0.5
 62
256
  6
BYLAYER
  0
LAYOUT
  5
43B
102
{ACAD_REACTORS
330
1A
102
}
100
AcDbPlotSettings
  1

  2
none_device
  4
ISO_A3_(420.00_x_297.00_MM)
  6

 40
0.0
 41
0.0
 42
0.0
 43
0.0
 44
420.0
 45
297.0
 46
0.0
 47
0.0
 48
0.0
 49
0.0
140
0.0
141
0.0
142
1.0
143
1.0
 70
1024
 72
1
 73
0
 74
0
  7

 75
0
147
1.0
148
0.0
149
0.0
100
AcDbLayout
  1
Model
 70
0
 71
0
 10
0.0
 20
0.0
 11
420.0
 21
297.0
 12
0.0
 22
0.0
 32
0.0
 14
0.0
 24
0.0
 34
0.0
 15
0.0
 25
0.0
 35
0.0
146
0.0
 13
0.0
 23
0.0
 33
0.0
 16
1.0
 26
0.0
 36
0.0
 17
0.0
 27
1.0
 37
0.0
 76
0
330
21D
345
0
346
0
  0
LAYOUT
  5
43C
102
{ACAD_REACTORS
330
1A
102
}
100
AcDbPlotSettings
  1

  2
none_device
  4
ISO_A3_(420.00_x_297.00_MM)
  6

 40
0.0
 41
0.0
 42
0.0
 43
0.0
 44
420.0
 45
297.0
 46
0.0
 47
0.0
 48
0.0
 49
0.0
140
0.0
141
0.0
142
1.0
143
1.0
 70
0
 72
1
 73
0
 74
0
  7

 75
0
147
1.0
148
0.0
149
0.0
100
AcDbLayout
  1
Layout1
 70
0
 71
1
 10
0.0
 20
0.0
 11
420.0
 21
297.0
 12
0.0
 22
0.0
 32
0.0
 14
0.0
 24
0.0
 34
0.0
 15
0.0
 25
0.0
 35
0.0
146
0.0
 13
0.0
 23
0.0
 33
0.0
 16
1.0
 26
0.0
 36
0.0
 17
0.0
 27
1.0
 37
0.0
 76
0
330
21E
345
0
346
0
  0
ENDSEC
  0
EOF
