999
dxfrw 0.6.3
  0
SECTION
  2
HEADER
  9
$ACADVER
  1
AC1021
  9
$DWGCODEPAGE
  3
ANSI_950
  9
$INSBASE
 10
0
 20
0
 30
0
  9
$EXTMIN
 10
50
 20
50
 30
0
  9
$EXTMAX
 10
366.0173234661643
 20
283.9539087353303
 30
0
  9
$LIMMIN
 10
0
 20
0
  9
$LIMMAX
 10
1680
 20
1188
  9
$ORTHOMODE
 70
    0
  9
$REGENMODE
 70
    1
  9
$FILLMODE
 70
    1
  9
$QTEXTMODE
 70
    0
  9
$MIRRTEXT
 70
    1
  9
$LTSCALE
 40
12
  9
$ATTMODE
 70
    1
  9
$TEXTSIZE
 40
4
  9
$TRACEWID
 40
0.05
  9
$TEXTSTYLE
  7
DAYUS
  9
$CLAYER
  8
0
  9
$CELTYPE
  6
BYLAYER
  9
$CECOLOR
 62
  256
  9
$CELTSCALE
 40
1
  9
$DISPSILH
 70
    0
  9
$DIMSCALE
 40
1
  9
$DIMASZ
 40
2
  9
$DIMEXO
 40
1.199999999999999
  9
$DIMDLI
 40
0.38
  9
$DIMRND
 40
0
  9
$DIMDLE
 40
0
  9
$DIMEXE
 40
1
  9
$DIMTP
 40
0
  9
$DIMTM
 40
0
  9
$DIMTXT
 40
2.5
  9
$DIMCEN
 40
2
  9
$DIMTSZ
 40
0
  9
$DIMTOL
 70
    0
  9
$DIMLIM
 70
    0
  9
$DIMTIH
 70
    0
  9
$DIMTOH
 70
    0
  9
$DIMSE1
 70
    0
  9
$DIMSE2
 70
    0
  9
$DIMTAD
 70
    0
  9
$DIMZIN
 70
    0
  9
$DIMBLK
  1

  9
$DIMASO
 70
    0
  9
$DIMSHO
 70
    0
  9
$DIMPOST
  1

  9
$DIMAPOST
  1

  9
$DIMALT
 70
    0
  9
$DIMALTD
 70
    2
  9
$DIMALTF
 40
25.4
  9
$DIMLFAC
 40
2
  9
$DIMTOFL
 70
    0
  9
$DIMTVP
 40
0
  9
$DIMTIX
 70
    0
  9
$DIMSOXD
 70
    0
  9
$DIMSAH
 70
    0
  9
$DIMBLK1
  1

  9
$DIMBLK2
  1

  9
$DIMSTYLE
  2
STANDARD
  9
$DIMCLRD
 70
    0
  9
$DIMCLRE
 70
    0
  9
$DIMCLRT
 70
    0
  9
$DIMTFAC
 40
1
  9
$DIMGAP
 40
0.09
  9
$DIMJUST
 70
    0
  9
$DIMSD1
 70
    0
  9
$DIMSD2
 70
    0
  9
$DIMTOLJ
 70
    1
  9
$DIMTZIN
 70
    0
  9
$DIMALTZ
 70
    0
  9
$DIMALTTZ
 70
    0
  9
$DIMUPT
 70
    0
  9
$DIMDEC
 70
    4
  9
$DIMTDEC
 70
    2
  9
$DIMALTU
 70
    2
  9
$DIMALTTD
 70
    2
  9
$DIMTXSTY
  7
DAYUS
  9
$DIMAUNIT
 70
    0
  9
$DIMADEC
 70
    0
  9
$DIMALTRND
 40
0
  9
$DIMAZIN
 70
    0
  9
$DIMDSEP
 70
   46
  9
$DIMATFIT
 70
    3
  9
$DIMFRAC
 70
    0
  9
$DIMLDRBLK
  1

  9
$DIMLUNIT
 70
    2
  9
$DIMLWD
 70
   -2
  9
$DIMLWE
 70
   -2
  9
$DIMTMOVE
 70
    2
  9
$DIMFXL
 40
1
  9
$DIMFXLON
 70
    0
  9
$DIMJOGANG
 40
0.7854
  9
$DIMTFILL
 70
    0
  9
$DIMTFILLCLR
 70
    0
  9
$DIMARCSYM
 70
    0
  9
$DIMLTYPE
  6

  9
$DIMLTEX1
  6

  9
$DIMLTEX2
  6

  9
$LUNITS
 70
    2
  9
$LUPREC
 70
    2
  9
$SKETCHINC
 40
0.1
  9
$FILLETRAD
 40
0
  9
$AUNITS
 70
    0
  9
$AUPREC
 70
    1
  9
$MENU
  1
USER
  9
$ELEVATION
 40
0
  9
$PELEVATION
 40
0
  9
$THICKNESS
 40
0
  9
$LIMCHECK
 70
    0
  9
$CHAMFERA
 40
0.8
  9
$CHAMFERB
 40
0.8
  9
$CHAMFERC
 40
0
  9
$CHAMFERD
 40
0
  9
$SKPOLY
 70
    0
  9
$USRTIMER
 70
    1
  9
$ANGBASE
 50
0
  9
$ANGDIR
 70
    0
  9
$PDMODE
 70
    0
  9
$PDSIZE
 40
0
  9
$PLINEWID
 40
0.4
  9
$SPLFRAME
 70
    0
  9
$SPLINETYPE
 70
    6
  9
$SPLINESEGS
 70
    8
  9
$HANDSEED
  5
20000
  9
$SURFTAB1
 70
   12
  9
$SURFTAB2
 70
   12
  9
$SURFTYPE
 70
    6
  9
$SURFU
 70
    6
  9
$SURFV
 70
    6
  9
$UCSBASE
  2

  9
$UCSNAME
  2

  9
$UCSORG
 10
0
 20
0
 30
0
  9
$UCSXDIR
 10
1
 20
0
 30
0
  9
$UCSYDIR
 10
0
 20
1
 30
0
  9
$UCSORTHOREF
  2

  9
$UCSORTHOVIEW
 70
    0
  9
$UCSORGTOP
 10
0
 20
0
 30
0
  9
$UCSORGBOTTOM
 10
0
 20
0
 30
0
  9
$UCSORGLEFT
 10
0
 20
0
 30
0
  9
$UCSORGRIGHT
 10
0
 20
0
 30
0
  9
$UCSORGFRONT
 10
0
 20
0
 30
0
  9
$UCSORGBACK
 10
0
 20
0
 30
0
  9
$PUCSBASE
  2

  9
$PUCSNAME
  2

  9
$PUCSORG
 10
0
 20
0
 30
0
  9
$PUCSXDIR
 10
1
 20
0
 30
0
  9
$PUCSYDIR
 10
0
 20
1
 30
0
  9
$PUCSORTHOREF
  2

  9
$PUCSORTHOVIEW
 70
    0
  9
$PUCSORGTOP
 10
0
 20
0
 30
0
  9
$PUCSORGBOTTOM
 10
0
 20
0
 30
0
  9
$PUCSORGLEFT
 10
0
 20
0
 30
0
  9
$PUCSORGRIGHT
 10
0
 20
0
 30
0
  9
$PUCSORGFRONT
 10
0
 20
0
 30
0
  9
$PUCSORGBACK
 10
0
 20
0
 30
0
  9
$USERI1
 70
    0
  9
$USERI2
 70
    0
  9
$USERI3
 70
    0
  9
$USERI4
 70
    0
  9
$USERI5
 70
    0
  9
$USERR1
 40
0
  9
$USERR2
 40
0
  9
$USERR3
 40
0
  9
$USERR4
 40
0
  9
$USERR5
 40
0
  9
$WORLDVIEW
 70
    1
  9
$SHADEDGE
 70
    3
  9
$SHADEDIF
 70
   70
  9
$TILEMODE
 70
    1
  9
$MAXACTVP
 70
   16
  9
$PINSBASE
 10
0
 20
0
 30
0
  9
$PLIMCHECK
 70
    0
  9
$PEXTMIN
 10
1e+020
 20
1e+020
 30
1e+020
  9
$PEXTMAX
 10
-1e+020
 20
-1e+020
 30
-1e+020
  9
$GRIDMODE
 70
    0
  9
$SNAPSTYLE
 70
    0
  9
$PLIMMIN
 10
0
 20
0
  9
$PLIMMAX
 10
12
 20
9
  9
$UNITMODE
 70
    0
  9
$VISRETAIN
 70
    0
  9
$PLINEGEN
 70
    0
  9
$PSLTSCALE
 70
    0
  9
$TREEDEPTH
 70
 3020
  9
$CMLSTYLE
  2
STANDARD
  9
$CMLJUST
 70
    0
  9
$CMLSCALE
 40
1
  9
$PROXYGRAPHICS
 70
    1
  9
$MEASUREMENT
 70
    0
  9
$CELWEIGHT
370
   -1
  9
$ENDCAPS
280
    0
  9
$JOINSTYLE
280
    0
  9
$LWDISPLAY
290
    0
  9
$INSUNITS
 70
    0
  9
$HYPERLINKBASE
  1

  9
$STYLESHEET
  1

  9
$XEDIT
290
    1
  9
$CEPSNTYPE
380
    0
  9
$PSTYLEMODE
290
    1
  9
$EXTNAMES
290
    1
  9
$PSVPSCALE
 40
0
  9
$OLESTARTUP
290
    0
  9
$SORTENTS
280
  127
  9
$INDEXCTL
280
    0
  9
$HIDETEXT
280
    1
  9
$XCLIPFRAME
290
    0
  9
$HALOGAP
280
    0
  9
$OBSCOLOR
 70
  257
  9
$OBSLTYPE
280
    0
  9
$INTERSECTIONDISPLAY
280
    0
  9
$INTERSECTIONCOLOR
 70
  257
  9
$DIMASSOC
280
    0
  9
$PROJECTNAME
  1

  9
$CAMERADISPLAY
290
    0
  9
$LENSLENGTH
 40
50
  9
$CAMERAHEIGHT
 40
0
  9
$STEPSPERSEC
 40
2
  9
$STEPSIZE
 40
50
  9
$3DDWFPREC
 40
2
  9
$PSOLWIDTH
 40
5
  9
$PSOLHEIGHT
 40
80
  9
$LOFTANG1
 40
1.570796326794897
  9
$LOFTANG2
 40
1.570796326794897
  9
$LOFTMAG1
 40
0
  9
$LOFTMAG2
 40
0
  9
$LOFTPARAM
 70
    7
  9
$LOFTNORMALS
280
    1
  9
$LATITUDE
 40
1
  9
$LONGITUDE
 40
1
  9
$NORTHDIRECTION
 40
0
  9
$TIMEZONE
 70
-8000
  9
$LIGHTGLYPHDISPLAY
280
    1
  9
$TILEMODELIGHTSYNCH
280
    1
  9
$SOLIDHIST
280
    1
  9
$SHOWHIST
280
    1
  9
$DWFFRAME
280
    2
  9
$DGNFRAME
280
    0
  9
$REALWORLDSCALE
290
    1
  9
$INTERFERECOLOR
 62
    1
  9
$CSHADOW
280
    0
  9
$SHADOWPLANELOCATION
 40
0
  0
ENDSEC
  0
SECTION
  2
CLASSES
  0
ENDSEC
  0
SECTION
  2
TABLES
  0
TABLE
  2
VPORT
  5
8
330
0
100
AcDbSymbolTable
 70
    1
  0
VPORT
  5
31
330
2
100
AcDbSymbolTableRecord
100
AcDbViewportTableRecord
  2
*ACTIVE
 70
    0
 10
0
 20
0
 11
1
 21
1
 12
222.1655334889765
 22
144.1808972438664
 13
0
 23
0
 14
10
 24
10
 15
10
 25
10
 16
0
 26
0
 36
1
 17
0
 27
0
 37
0
 40
243.021889694064
 41
1.944029850746269
 42
50
 43
0
 44
0
 50
0
 51
0
 71
    0
 72
  100
 73
    1
 74
    3
 75
    0
 76
    0
 77
    0
 78
    0
281
    0
 65
    1
110
0
120
0
130
0
111
1
121
0
131
0
112
0
122
1
132
0
 79
    0
146
0
348
10020
 60
    7
 61
    5
292
1
282
    1
141
0
142
0
 63
  250
421
3358443
  0
ENDTAB
  0
TABLE
  2
LTYPE
  5
5
330
0
100
AcDbSymbolTable
 70
    4
  0
LTYPE
  5
14
330
5
100
AcDbSymbolTableRecord
100
AcDbLinetypeTableRecord
  2
ByBlock
 70
    0
  3

 72
   65
 73
    0
 40
0
  0
LTYPE
  5
15
330
5
100
AcDbSymbolTableRecord
100
AcDbLinetypeTableRecord
  2
ByLayer
 70
    0
  3

 72
   65
 73
    0
 40
0
  0
LTYPE
  5
16
330
5
100
AcDbSymbolTableRecord
100
AcDbLinetypeTableRecord
  2
Continuous
 70
    0
  3
Solid line
 72
   65
 73
    0
 40
0
  0
LTYPE
  5
32
330
5
100
AcDbSymbolTableRecord
100
AcDbLinetypeTableRecord
  2
DOT
 70
    0
  3
Dot . . . . . . . . . . . . . . . . . . . . . .
 72
   65
 73
    2
 40
6.35
 49
0
 74
    0
 49
-6.35
 74
    0
  0
LTYPE
  5
33
330
5
100
AcDbSymbolTableRecord
100
AcDbLinetypeTableRecord
  2
DOTTINY
 70
    0
  3
Dot (.15x) .....................................
 72
   65
 73
    2
 40
0.9525
 49
0
 74
    0
 49
-0.9525
 74
    0
  0
LTYPE
  5
34
330
5
100
AcDbSymbolTableRecord
100
AcDbLinetypeTableRecord
  2
DOT2
 70
    0
  3
Dot (.5x) .....................................
 72
   65
 73
    2
 40
3.175
 49
0
 74
    0
 49
-3.175
 74
    0
  0
LTYPE
  5
35
330
5
100
AcDbSymbolTableRecord
100
AcDbLinetypeTableRecord
  2
DOTX2
 70
    0
  3
Dot (2x) .  .  .  .  .  .  .  .  .  .  .  .  .
 72
   65
 73
    2
 40
12.7
 49
0
 74
    0
 49
-12.7
 74
    0
  0
LTYPE
  5
36
330
5
100
AcDbSymbolTableRecord
100
AcDbLinetypeTableRecord
  2
DASHED
 70
    0
  3
Dashed _ _ _ _ _ _ _ _ _ _ _ _ _ _ _ _ _
 72
   65
 73
    2
 40
19.05
 49
12.7
 74
    0
 49
-6.35
 74
    0
  0
LTYPE
  5
37
330
5
100
AcDbSymbolTableRecord
100
AcDbLinetypeTableRecord
  2
DASHEDTINY
 70
    0
  3
Dashed (.15x) _ _ _ _ _ _ _ _ _ _ _ _ _ _ _ _ _
 72
   65
 73
    2
 40
2.8575
 49
1.905
 74
    0
 49
-0.9525
 74
    0
  0
LTYPE
  5
38
330
5
100
AcDbSymbolTableRecord
100
AcDbLinetypeTableRecord
  2
DASHED2
 70
    0
  3
Dashed (.5x) _ _ _ _ _ _ _ _ _ _ _ _ _ _ _ _ _
 72
   65
 73
    2
 40
9.524999999999999
 49
6.35
 74
    0
 49
-3.175
 74
    0
  0
LTYPE
  5
39
330
5
100
AcDbSymbolTableRecord
100
AcDbLinetypeTableRecord
  2
DASHEDX2
 70
    0
  3
Dashed (2x) ____  ____  ____  ____  ____  ___
 72
   65
 73
    2
 40
38.09999999999999
 49
25.4
 74
    0
 49
-12.7
 74
    0
  0
LTYPE
  5
3A
330
5
100
AcDbSymbolTableRecord
100
AcDbLinetypeTableRecord
  2
DASHDOT
 70
    0
  3
Dash dot __ . __ . __ . __ . __ . __ . __ . __
 72
   65
 73
    4
 40
25.4
 49
12.7
 74
    0
 49
-6.35
 74
    0
 49
0
 74
    0
 49
-6.35
 74
    0
  0
LTYPE
  5
3B
330
5
100
AcDbSymbolTableRecord
100
AcDbLinetypeTableRecord
  2
DASHDOTTINY
 70
    0
  3
Dash dot (.15x) _._._._._._._._._._._._._._._.
 72
   65
 73
    4
 40
3.81
 49
1.905
 74
    0
 49
-0.9525
 74
    0
 49
0
 74
    0
 49
-0.9525
 74
    0
  0
LTYPE
  5
3C
330
5
100
AcDbSymbolTableRecord
100
AcDbLinetypeTableRecord
  2
DASHDOT2
 70
    0
  3
Dash dot (.5x) _._._._._._._._._._._._._._._.
 72
   65
 73
    4
 40
12.7
 49
6.35
 74
    0
 49
-3.175
 74
    0
 49
0
 74
    0
 49
-3.175
 74
    0
  0
LTYPE
  5
3D
330
5
100
AcDbSymbolTableRecord
100
AcDbLinetypeTableRecord
  2
DASHDOTX2
 70
    0
  3
Dash dot (2x) ____  .  ____  .  ____  .  ___
 72
   65
 73
    4
 40
50.8
 49
25.4
 74
    0
 49
-12.7
 74
    0
 49
0
 74
    0
 49
-12.7
 74
    0
  0
LTYPE
  5
3E
330
5
100
AcDbSymbolTableRecord
100
AcDbLinetypeTableRecord
  2
DIVIDE
 70
    0
  3
Divide ____ . . ____ . . ____ . . ____ . . ____
 72
   65
 73
    6
 40
31.75
 49
12.7
 74
    0
 49
-6.35
 74
    0
 49
0
 74
    0
 49
-6.35
 74
    0
 49
0
 74
    0
 49
-6.35
 74
    0
  0
LTYPE
  5
3F
330
5
100
AcDbSymbolTableRecord
100
AcDbLinetypeTableRecord
  2
DIVIDETINY
 70
    0
  3
Divide (.15x) __..__..__..__..__..__..__..__.._
 72
   65
 73
    6
 40
4.7625
 49
1.905
 74
    0
 49
-0.9525
 74
    0
 49
0
 74
    0
 49
-0.9525
 74
    0
 49
0
 74
    0
 49
-0.9525
 74
    0
  0
LTYPE
  5
40
330
5
100
AcDbSymbolTableRecord
100
AcDbLinetypeTableRecord
  2
DIVIDE2
 70
    0
  3
Divide (.5x) __..__..__..__..__..__..__..__.._
 72
   65
 73
    6
 40
15.875
 49
6.35
 74
    0
 49
-3.175
 74
    0
 49
0
 74
    0
 49
-3.175
 74
    0
 49
0
 74
    0
 49
-3.175
 74
    0
  0
LTYPE
  5
41
330
5
100
AcDbSymbolTableRecord
100
AcDbLinetypeTableRecord
  2
DIVIDEX2
 70
    0
  3
Divide (2x) ________  .  .  ________  .  .  _
 72
   65
 73
    6
 40
63.5
 49
25.4
 74
    0
 49
-12.7
 74
    0
 49
0
 74
    0
 49
-12.7
 74
    0
 49
0
 74
    0
 49
-12.7
 74
    0
  0
LTYPE
  5
42
330
5
100
AcDbSymbolTableRecord
100
AcDbLinetypeTableRecord
  2
BORDER
 70
    0
  3
Border __ __ . __ __ . __ __ . __ __ . __ __ .
 72
   65
 73
    6
 40
44.45
 49
12.7
 74
    0
 49
-6.35
 74
    0
 49
12.7
 74
    0
 49
-6.35
 74
    0
 49
0
 74
    0
 49
-6.35
 74
    0
  0
LTYPE
  5
43
330
5
100
AcDbSymbolTableRecord
100
AcDbLinetypeTableRecord
  2
BORDERTINY
 70
    0
  3
Border (.15x) __.__.__.__.__.__.__.__.__.__.__.
 72
   65
 73
    6
 40
6.6675
 49
1.905
 74
    0
 49
-0.9525
 74
    0
 49
1.905
 74
    0
 49
-0.9525
 74
    0
 49
0
 74
    0
 49
-0.9525
 74
    0
  0
LTYPE
  5
44
330
5
100
AcDbSymbolTableRecord
100
AcDbLinetypeTableRecord
  2
BORDER2
 70
    0
  3
Border (.5x) __.__.__.__.__.__.__.__.__.__.__.
 72
   65
 73
    6
 40
22.225
 49
6.35
 74
    0
 49
-3.175
 74
    0
 49
6.35
 74
    0
 49
-3.175
 74
    0
 49
0
 74
    0
 49
-3.175
 74
    0
  0
LTYPE
  5
45
330
5
100
AcDbSymbolTableRecord
100
AcDbLinetypeTableRecord
  2
BORDERX2
 70
    0
  3
Border (2x) ____  ____  .  ____  ____  .  ___
 72
   65
 73
    6
 40
88.89999999999999
 49
25.4
 74
    0
 49
-12.7
 74
    0
 49
25.4
 74
    0
 49
-12.7
 74
    0
 49
0
 74
    0
 49
-12.7
 74
    0
  0
LTYPE
  5
46
330
5
100
AcDbSymbolTableRecord
100
AcDbLinetypeTableRecord
  2
CENTER
 70
    0
  3
Center ____ _ ____ _ ____ _ ____ _ ____ _ ____
 72
   65
 73
    4
 40
50.8
 49
31.75
 74
    0
 49
-6.35
 74
    0
 49
6.35
 74
    0
 49
-6.35
 74
    0
  0
LTYPE
  5
47
330
5
100
AcDbSymbolTableRecord
100
AcDbLinetypeTableRecord
  2
CENTERTINY
 70
    0
  3
Center (.15x) ___ _ ___ _ ___ _ ___ _ ___ _ ___
 72
   65
 73
    4
 40
7.62
 49
4.7625
 74
    0
 49
-0.9525
 74
    0
 49
0.9525
 74
    0
 49
-0.9525
 74
    0
  0
LTYPE
  5
48
330
5
100
AcDbSymbolTableRecord
100
AcDbLinetypeTableRecord
  2
CENTER2
 70
    0
  3
Center (.5x) ___ _ ___ _ ___ _ ___ _ ___ _ ___
 72
   65
 73
    4
 40
28.575
 49
19.05
 74
    0
 49
-3.175
 74
    0
 49
3.175
 74
    0
 49
-3.175
 74
    0
  0
LTYPE
  5
49
330
5
100
AcDbSymbolTableRecord
100
AcDbLinetypeTableRecord
  2
CENTERX2
 70
    0
  3
Center (2x) ________  __  ________  __  _____
 72
   65
 73
    4
 40
101.6
 49
63.5
 74
    0
 49
-12.7
 74
    0
 49
12.7
 74
    0
 49
-12.7
 74
    0
  0
ENDTAB
  0
TABLE
  2
LAYER
  5
2
330
0
100
AcDbSymbolTable
 70
    1
  0
LAYER
  5
10
330
2
100
AcDbSymbolTableRecord
100
AcDbLayerTableRecord
  2
0
 70
    0
 62
    7
  6
CONTINUOUS
370
   -3
390
F
  0
LAYER
  5
4A
330
2
100
AcDbSymbolTableRecord
100
AcDbLayerTableRecord
  2
02___PRT_ALL_AXES
 70
    0
 62
    7
  6
CONTINUOUS
370
   -3
390
F
  0
ENDTAB
  0
TABLE
  2
STYLE
  5
3
330
0
100
AcDbSymbolTable
 70
    3
  0
STYLE
  5
4B
330
2
100
AcDbSymbolTableRecord
100
AcDbTextStyleTableRecord
  2
dayus
 70
    0
 40
0
 41
1
 50
0
 71
    0
 42
1
  3
dayus
  4

  0
STYLE
  5
4C
330
2
100
AcDbSymbolTableRecord
100
AcDbTextStyleTableRecord
  2
Standard
 70
    0
 40
0
 41
1
 50
0
 71
    0
 42
1
  3
txt
  4

  0
ENDTAB
  0
TABLE
  2
VIEW
  5
6
330
0
100
AcDbSymbolTable
 70
    0
  0
ENDTAB
  0
TABLE
  2
UCS
  5
7
330
0
100
AcDbSymbolTable
 70
    0
  0
ENDTAB
  0
TABLE
  2
APPID
  5
9
330
0
100
AcDbSymbolTable
 70
    1
  0
APPID
  5
12
330
9
100
AcDbSymbolTableRecord
100
AcDbRegAppTableRecord
  2
ACAD
 70
    0
  0
APPID
  5
4D
330
9
100
AcDbSymbolTableRecord
100
AcDbRegAppTableRecord
  2
LibreCad
 70
    0
  0
ENDTAB
  0
TABLE
  2
DIMSTYLE
  5
A
330
0
100
AcDbSymbolTable
 70
    1
100
AcDbDimStyleTable
 71
    1
  0
DIMSTYLE
105
4E
330
A
100
AcDbSymbolTableRecord
100
AcDbDimStyleTableRecord
  2
Standard
 70
    0
 40
1
 41
2
 42
1.199999999999999
 43
0.38
 44
1
 45
0
 46
0
 47
0
 48
0
 49
1
140
2.5
141
0.09
142
0
143
25.4
144
2
145
0
146
1
147
0.09
148
0
 71
    0
 72
    0
 73
    0
 74
    1
 75
    0
 76
    0
 77
    0
 78
    0
 79
    0
170
    0
171
    2
172
    0
173
    0
174
    0
175
    0
176
    0
177
    0
178
    0
179
    0
271
    4
272
    4
273
    2
274
    2
275
    0
276
    0
277
    2
278
   46
279
    0
280
    0
281
    0
282
    0
283
    1
284
    0
285
    0
286
    0
288
    0
289
    3
340
DAYUS
341

371
   -2
372
   -2
  0
ENDTAB
  0
TABLE
  2
BLOCK_RECORD
  5
1
330
0
100
AcDbSymbolTable
 70
    2
  0
BLOCK_RECORD
  5
1F
330
1
100
AcDbSymbolTableRecord
100
AcDbBlockTableRecord
  2
*Model_Space
 70
    0
280
    1
281
    0
  0
BLOCK_RECORD
  5
1E
330
1
100
AcDbSymbolTableRecord
100
AcDbBlockTableRecord
  2
*Paper_Space
 70
    0
280
    1
281
    0
  0
BLOCK_RECORD
  5
4F
330
1
100
AcDbSymbolTableRecord
100
AcDbBlockTableRecord
  2
*D2
 70
    0
280
    1
281
    0
  0
BLOCK_RECORD
  5
52
330
1
100
AcDbSymbolTableRecord
100
AcDbBlockTableRecord
  2
*D1
 70
    0
280
    1
281
    0
  0
ENDTAB
  0
ENDSEC
  0
SECTION
  2
BLOCKS
  0
BLOCK
  5
20
330
1F
100
AcDbEntity
  8
0
100
AcDbBlockBegin
  2
*Model_Space
 70
    0
 10
0
 20
0
 30
0
  3
*Model_Space
  1

  0
ENDBLK
  5
21
330
1F
100
AcDbEntity
  8
0
100
AcDbBlockEnd
  0
BLOCK
  5
1C
330
1B
100
AcDbEntity
  8
0
100
AcDbBlockBegin
  2
*Paper_Space
 70
    0
 10
0
 20
0
 30
0
  3
*Paper_Space
  1

  0
ENDBLK
  5
1D
330
1F
100
AcDbEntity
  8
0
100
AcDbBlockEnd
  0
BLOCK
  5
50
330
4F
100
AcDbEntity
  8
0
100
AcDbBlockBegin
  2
*D2
 70
    1
 10
0
 20
0
  3
*D2
  1

  0
LINE
  5
55
100
AcDbEntity
  8
0
  6
CONTINUOUS
 62
    7
370
    0
100
AcDbLine
 10
193.4145751054411
 20
128.9371935107574
 11
208.4516443592949
 21
142.896758292869
  0
LINE
  5
56
100
AcDbEntity
  8
0
  6
CONTINUOUS
 62
    7
370
    0
100
AcDbLine
 10
208.4516443592949
 20
142.896758292869
 11
210.4516443592949
 21
142.896758292869
  0
SOLID
  5
57
100
AcDbEntity
  8
0
  6
CONTINUOUS
 62
    7
370
    0
100
AcDbTrace
 10
193.4145751054411
 20
128.9371935107574
 30
0
 11
194.6537494967111
 21
130.5419845546166
 31
0
 12
195.1069079003916
 22
130.0538479683069
 32
0
 13
195.1069079003916
 23
130.0538479683069
 33
0
  0
ENDBLK
  5
51
330
4F
100
AcDbEntity
  8
0
100
AcDbBlockEnd
  0
BLOCK
  5
53
330
52
100
AcDbEntity
  8
0
100
AcDbBlockBegin
  2
*D1
 70
    1
 10
0
 20
0
  3
*D1
  1

  0
LINE
  5
58
100
AcDbEntity
  8
0
  6
CONTINUOUS
 62
    7
370
    0
100
AcDbLine
 10
122.9573149215712
 20
266.6376502670317
 11
137.0295291898293
 21
273.1159721991844
  0
LINE
  5
59
100
AcDbEntity
  8
0
  6
CONTINUOUS
 62
    7
370
    0
100
AcDbLine
 10
137.0295291898293
 20
273.1159721991844
 11
139.0295291898293
 21
273.1159721991844
  0
SOLID
  5
5A
100
AcDbEntity
  8
0
  6
CONTINUOUS
 62
    7
370
    0
100
AcDbTrace
 10
122.9573149215712
 20
266.6376502670317
 30
0
 11
124.634780909584
 21
267.7765160736527
 31
0
 12
124.9133103009728
 22
267.1714943849067
 32
0
 13
124.9133103009728
 23
267.1714943849067
 33
0
  0
ENDBLK
  5
54
330
52
100
AcDbEntity
  8
0
100
AcDbBlockEnd
  0
ENDSEC
  0
SECTION
  2
ENTITIES
  0
MTEXT
  5
5B
100
AcDbEntity
  8
0
  6
ByLayer
 62
  256
370
   -1
100
AcDbMText
 10
139.1195291898293
 20
275.1159721991844
 30
0
 40
4
 41
34.88888888888889
 71
    1
 72
    1
  1
IEC C14 PLUG
  7
dayus
210
0
220
0
230
1
 50
0
 73
    1
 44
1
  0
LEADER
  5
5C
100
AcDbEntity
  8
0
  6
ByLayer
 62
  256
370
   -1
100
AcDbLeader
  3
Standard
 71
    1
 72
    0
 73
    3
 74
    0
 75
    0
 40
1
 41
10
 76
3
 76
3
 10
122.9573149215712
 20
266.6376502670317
 30
0
 10
137.0295291898293
 20
273.1159721991844
 30
0
 10
139.0295291898293
 20
273.1159721991844
 30
0
  0
LWPOLYLINE
  5
5D
100
AcDbEntity
  8
0
  6
CONTINUOUS
 62
    7
370
   -1
100
AcDbPolyline
 90
    3
 70
    0
 43
0
 10
113.7893329357912
 20
228.2265089831477
 10
113.7894990416316
 20
229.0652495459478
 10
113.7895361734799
 20
250.3092758041961
  0
LWPOLYLINE
  5
5E
100
AcDbEntity
  8
0
  6
CONTINUOUS
 62
    7
370
   -1
100
AcDbPolyline
 90
    2
 70
    0
 43
0
 10
118.2896304967625
 20
253.3472017656813
 10
118.2896471522954
 20
259.7160773918917
  0
SPLINE
  5
5F
100
AcDbEntity
  8
0
  6
ByLayer
 62
  256
370
   -1
100
AcDbSpline
210
0
220
0
230
0
 70
    8
 71
    3
 72
   10
 73
    6
 74
    0
 42
1e-007
 43
1e-007
 40
0
 40
0
 40
0
 40
0
 40
1.400259708989815
 40
3.117064347256317
 40
3.700810235972628
 40
3.700810235972628
 40
3.700810235972628
 40
3.700810235972628
 10
113.789543984697
 20
253.6323640476825
 30
0
 10
114.2073348972553
 20
253.397192742194
 30
0
 10
115.1373631982796
 20
252.8736869331432
 30
0
 10
116.4389091287394
 20
253.1560104177497
 30
0
 10
117.1257141015567
 20
253.5539790748521
 30
0
 10
117.2881380449571
 20
253.6667962718865
 30
0
  0
SPLINE
  5
60
100
AcDbEntity
  8
0
  6
ByLayer
 62
  256
370
   -1
100
AcDbSpline
210
0
220
0
230
0
 70
    8
 71
    3
 72
   10
 73
    6
 74
    0
 42
1e-007
 43
1e-007
 40
0
 40
0
 40
0
 40
0
 40
1.287927580485993
 40
2.979535498651033
 40
3.307115531223355
 40
3.307115531223355
 40
3.307115531223355
 40
3.307115531223355
 10
118.2896246271057
 20
249.8617187338187
 30
0
 10
118.0338750066257
 20
250.2340184029722
 30
0
 10
117.4422151302997
 20
251.0953091286205
 30
0
 10
116.1282423129332
 20
251.0145280037946
 30
0
 10
115.5213567422115
 20
250.5626300497823
 30
0
 10
115.4250999986625
 20
250.4917526610773
 30
0
  0
LINE
  5
61
100
AcDbEntity
  8
0
  6
CONTINUOUS
 62
    7
370
   -1
100
AcDbLine
 10
118.2896139445884
 20
240.1354040692591
 11
337.0895751049811
 21
240.1354040692591
  0
LWPOLYLINE
  5
62
100
AcDbEntity
  8
0
  6
CONTINUOUS
 62
    7
370
   -1
100
AcDbPolyline
 90
    3
 70
    0
 43
0
 10
118.2894177182606
 20
227.778951031737
 10
118.2895838241011
 20
228.6176915945372
 10
118.2896209559494
 20
249.8617178527855
  0
LINE
  5
63
100
AcDbEntity
  8
0
  6
CONTINUOUS
 62
    7
370
   -1
100
AcDbLine
 10
113.7895565178078
 20
259.9354139646694
 11
113.789543984697
 21
253.632364047679
  0
SPLINE
  5
64
100
AcDbEntity
  8
0
  6
CONTINUOUS
 62
    7
370
   -1
100
AcDbSpline
210
0
220
0
230
0
 70
    8
 71
    3
 72
   13
 73
    9
 74
    0
 42
1e-007
 43
1e-007
 40
0
 40
0
 40
0
 40
0
 40
0.2247009496943602
 40
0.4540513528401538
 40
0.6811519854493712
 40
0.9028779475055948
 40
1.128787222634498
 40
1.355284105064993
 40
1.355284105064993
 40
1.355284105064993
 40
1.355284105064993
 10
110.2425895522401
 20
269.0410773918417
 30
0
 10
110.1676892356754
 20
269.0410773918417
 30
0
 10
110.0158157979103
 20
269.0243054767382
 30
0
 10
109.7995074899318
 20
268.949392005955
 30
0
 10
109.6061725350337
 20
268.8285497863811
 30
0
 10
109.4452580645757
 20
268.6687826040416
 30
0
 10
109.323911670107
 20
268.47745766555
 30
0
 10
109.2734997073739
 20
268.333679940478
 30
0
 10
109.2568214209104
 20
268.2600461992716
 30
0
  0
SPLINE
  5
65
100
AcDbEntity
  8
0
  6
CONTINUOUS
 62
    7
370
   -1
100
AcDbSpline
210
0
220
0
230
0
 70
    8
 71
    3
 72
   13
 73
    9
 74
    0
 42
1e-007
 43
1e-007
 40
0
 40
0
 40
0
 40
0
 40
0.2264560277792244
 40
0.4523167821463592
 40
0.6740401496214657
 40
0.9011846966966665
 40
1.13057653429472
 40
1.355308609813905
 40
1.355308609813905
 40
1.355308609813905
 40
1.355308609813905
 10
122.4578138695205
 20
268.2600221569016
 30
0
 10
122.4411404198026
 20
268.3336430304423
 30
0
 10
122.3907451247432
 20
268.47739412866
 30
0
 10
122.2694330730282
 20
268.66870322765
 30
0
 10
122.1085388091342
 20
268.8284872813337
 30
0
 10
121.9151909327002
 20
268.9493628569935
 30
0
 10
121.6988488239685
 20
269.0243004404964
 30
0
 10
121.5469509804607
 20
269.0410773918417
 30
0
 10
121.4720402886205
 20
269.0410773918417
 30
0
  0
ARC
  5
66
100
AcDbEntity
  8
0
  6
CONTINUOUS
 62
    7
370
   -1
100
AcDbCircle
 10
121.4979721925601
 20
268.0410687467016
 40
0.9843427277799998
100
AcDbArc
 50
0.0005031411998061
 51
1.336524300400228
  0
ARC
  5
67
100
AcDbEntity
  8
0
  6
CONTINUOUS
 62
    7
370
   -1
100
AcDbCircle
 10
121.4888724914299
 20
268.0407243557216
 40
0.9934479953200001
100
AcDbArc
 50
1.344140135500033
 51
12.75274234749982
  0
ARC
  5
68
100
AcDbEntity
  8
0
  6
CONTINUOUS
 62
    7
370
   -1
100
AcDbCircle
 10
120.957314921071
 20
266.6376502670317
 40
1.00000000025
100
AcDbArc
 50
0
 51
45.00000006970013
  0
ARC
  5
69
100
AcDbEntity
  8
0
  6
CONTINUOUS
 62
    7
370
   -1
100
AcDbCircle
 10
120.957314921071
 20
266.6376502670317
 40
1.24999830137
100
AcDbArc
 50
0
 51
44.99999999999963
  0
ARC
  5
6A
100
AcDbEntity
  8
0
  6
CONTINUOUS
 62
    7
370
   -1
100
AcDbCircle
 10
120.957314921071
 20
266.6376502670317
 40
1.750000343019999
100
AcDbArc
 50
0
 51
44.99999999999963
  0
ARC
  5
6B
100
AcDbEntity
  8
0
  6
CONTINUOUS
 62
    7
370
   -1
100
AcDbCircle
 10
120.957314921071
 20
266.6376502670317
 40
2.0000000005
100
AcDbArc
 50
0
 51
44.99999999999963
  0
ARC
  5
6C
100
AcDbEntity
  8
0
  6
CONTINUOUS
 62
    7
370
   -1
100
AcDbCircle
 10
119.6288877963697
 20
267.9660773917317
 40
1.00000000025
100
AcDbArc
 50
44.99999995510011
 51
90.00000006970048
  0
ARC
  5
6D
100
AcDbEntity
  8
0
  6
CONTINUOUS
 62
    7
370
   -1
100
AcDbCircle
 10
119.6288877963697
 20
267.9660773917317
 40
1.24999830137
100
AcDbArc
 50
44.99999999999963
 51
90
  0
ARC
  5
6E
100
AcDbEntity
  8
0
  6
CONTINUOUS
 62
    7
370
   -1
100
AcDbCircle
 10
119.6288877963697
 20
267.9660773917317
 40
1.750000341749999
100
AcDbArc
 50
44.99999999999963
 51
90
  0
ARC
  5
6F
100
AcDbEntity
  8
0
  6
CONTINUOUS
 62
    7
370
   -1
100
AcDbCircle
 10
119.6288877963697
 20
267.9660773917317
 40
2.0000000005
100
AcDbArc
 50
44.99999997110012
 51
90.00000004509995
  0
ARC
  5
70
100
AcDbEntity
  8
0
  6
CONTINUOUS
 62
    7
370
   -1
100
AcDbCircle
 10
120.4573149203106
 20
262.2160773918817
 40
1.499999999739999
100
AcDbArc
 50
270
 51
0
  0
ARC
  5
71
100
AcDbEntity
  8
0
  6
CONTINUOUS
 62
    7
370
   -1
100
AcDbCircle
 10
120.4573149203106
 20
262.2160773918817
 40
1.749998344039999
100
AcDbArc
 50
270
 51
0
  0
ARC
  5
72
100
AcDbEntity
  8
0
  6
CONTINUOUS
 62
    7
370
   -1
100
AcDbCircle
 10
120.0823149210109
 20
262.5910773911817
 40
2.624999296599999
100
AcDbArc
 50
270
 51
0
  0
ARC
  5
73
100
AcDbEntity
  8
0
  6
CONTINUOUS
 62
    7
370
   -1
100
AcDbCircle
 10
120.0823149210109
 20
262.5910773911817
 40
2.87500000056
100
AcDbArc
 50
269.9999999991004
 51
0
  0
ARC
  5
74
100
AcDbEntity
  8
0
  6
CONTINUOUS
 62
    7
370
   -1
100
AcDbCircle
 10
112.0857420457605
 20
267.9660773917317
 40
1.00000000025
100
AcDbArc
 50
89.99999995510007
 51
135.0000000697001
  0
ARC
  5
75
100
AcDbEntity
  8
0
  6
CONTINUOUS
 62
    7
370
   -1
100
AcDbCircle
 10
112.0857420457605
 20
267.9660773917317
 40
1.24999830137
100
AcDbArc
 50
90
 51
135.0000000000003
  0
ARC
  5
76
100
AcDbEntity
  8
0
  6
CONTINUOUS
 62
    7
370
   -1
100
AcDbCircle
 10
112.0857420457605
 20
267.9660773917317
 40
1.750000343019999
100
AcDbArc
 50
90
 51
135.0000000000003
  0
ARC
  5
77
100
AcDbEntity
  8
0
  6
CONTINUOUS
 62
    7
370
   -1
100
AcDbCircle
 10
112.0857420457605
 20
267.9660773917317
 40
2.0000000005
100
AcDbArc
 50
90
 51
135.0000000000003
  0
ARC
  5
78
100
AcDbEntity
  8
0
  6
CONTINUOUS
 62
    7
370
   -1
100
AcDbCircle
 10
111.25731492055
 20
262.2160773918817
 40
1.499999999739999
100
AcDbArc
 50
180
 51
270
  0
ARC
  5
79
100
AcDbEntity
  8
0
  6
CONTINUOUS
 62
    7
370
   -1
100
AcDbCircle
 10
111.25731492055
 20
262.2160773918817
 40
1.749998344039999
100
AcDbArc
 50
180
 51
270
  0
ARC
  5
7A
100
AcDbEntity
  8
0
  6
CONTINUOUS
 62
    7
370
   -1
100
AcDbCircle
 10
111.6323149211202
 20
262.5910773911817
 40
2.624999296599999
100
AcDbArc
 50
180
 51
270
  0
ARC
  5
7B
100
AcDbEntity
  8
0
  6
CONTINUOUS
 62
    7
370
   -1
100
AcDbCircle
 10
111.6323149211202
 20
262.5910773911817
 40
2.87500000056
100
AcDbArc
 50
179.9999999990999
 51
270.0000000012997
  0
ARC
  5
7C
100
AcDbEntity
  8
0
  6
CONTINUOUS
 62
    7
370
   -1
100
AcDbCircle
 10
110.2166564684703
 20
268.0410687454316
 40
0.9843415466799998
100
AcDbArc
 50
178.6633967466998
 51
179.9994967606001
  0
ARC
  5
7D
100
AcDbEntity
  8
0
  6
CONTINUOUS
 62
    7
370
   -1
100
AcDbCircle
 10
110.2257578929902
 20
268.0407242579316
 40
0.9934485401499999
100
AcDbArc
 50
167.2458373075
 51
178.6557783969999
  0
ARC
  5
7E
100
AcDbEntity
  8
0
  6
CONTINUOUS
 62
    7
370
   -1
100
AcDbCircle
 10
110.7573149210602
 20
266.6376502670317
 40
1.00000000025
100
AcDbArc
 50
134.9999999551001
 51
180.0000000697
  0
ARC
  5
7F
100
AcDbEntity
  8
0
  6
CONTINUOUS
 62
    7
370
   -1
100
AcDbCircle
 10
110.7573149210602
 20
266.6376502670317
 40
1.24999830137
100
AcDbArc
 50
135.0000000000003
 51
180
  0
ARC
  5
80
100
AcDbEntity
  8
0
  6
CONTINUOUS
 62
    7
370
   -1
100
AcDbCircle
 10
110.7573149210602
 20
266.6376502670317
 40
1.750000341749999
100
AcDbArc
 50
135.0000000000003
 51
180
  0
ARC
  5
81
100
AcDbEntity
  8
0
  6
CONTINUOUS
 62
    7
370
   -1
100
AcDbCircle
 10
110.7573149210602
 20
266.6376502670317
 40
2.0000000005
100
AcDbArc
 50
134.9999999711001
 51
180.0000000450999
  0
LINE
  5
82
100
AcDbEntity
  8
0
  6
CONTINUOUS
 62
    7
370
   -1
100
AcDbLine
 10
119.6288877963697
 20
269.9660773909617
 11
112.0857420457605
 21
269.9660773909617
  0
LINE
  5
83
100
AcDbEntity
  8
0
  6
CONTINUOUS
 62
    7
370
   -1
100
AcDbLine
 10
119.6288877963697
 20
269.7160773918516
 11
112.0857420457605
 21
269.7160773918516
  0
LINE
  5
84
100
AcDbEntity
  8
0
  6
CONTINUOUS
 62
    7
370
   -1
100
AcDbLine
 10
112.0857420457605
 20
269.2160773910917
 11
119.6288877963697
 21
269.2160773910917
  0
LINE
  5
85
100
AcDbEntity
  8
0
  6
CONTINUOUS
 62
    7
370
   -1
100
AcDbLine
 10
121.382314920701
 20
269.0410773918417
 11
121.4720402886205
 21
269.0410773918417
  0
LINE
  5
86
100
AcDbEntity
  8
0
  6
CONTINUOUS
 62
    7
370
   -1
100
AcDbLine
 10
110.2425895522401
 20
269.0410773918417
 11
110.3323149201606
 21
269.0410773918417
  0
LINE
  5
87
100
AcDbEntity
  8
0
  6
CONTINUOUS
 62
    7
370
   -1
100
AcDbLine
 10
112.0857420457605
 20
268.9660773907117
 11
119.6288877963697
 21
268.9660773907117
  0
LINE
  5
88
100
AcDbEntity
  8
0
  6
CONTINUOUS
 62
    7
370
   -1
100
AcDbLine
 10
122.3715284832897
 20
268.0518638292517
 11
121.0431013585903
 21
269.3802909539517
  0
LINE
  5
89
100
AcDbEntity
  8
0
  6
CONTINUOUS
 62
    7
370
   -1
100
AcDbLine
 10
115.3573149209405
 20
266.8410773912917
 11
116.3573149211906
 21
266.8410773912917
  0
LINE
  5
8A
100
AcDbEntity
  8
0
  6
CONTINUOUS
 62
    7
370
   -1
100
AcDbLine
 10
122.19475178833
 20
267.8750871330217
 11
120.8663246636306
 21
269.2035142589916
  0
LINE
  5
8B
100
AcDbEntity
  8
0
  6
CONTINUOUS
 62
    7
370
   -1
100
AcDbLine
 10
120.5127712724397
 20
268.8499608678017
 11
121.8411983971409
 21
267.5215337431017
  0
LINE
  5
8C
100
AcDbEntity
  8
0
  6
CONTINUOUS
 62
    7
370
   -1
100
AcDbLine
 10
120.33599457748
 20
268.6731841728417
 11
121.6644217021803
 21
267.3447570481417
  0
LINE
  5
8D
100
AcDbEntity
  8
0
  6
CONTINUOUS
 62
    7
370
   -1
100
AcDbLine
 10
122.7073149211901
 20
266.6376502670317
 11
122.9573149202997
 21
266.6376502644916
  0
LINE
  5
8E
100
AcDbEntity
  8
0
  6
CONTINUOUS
 62
    7
370
   -1
100
AcDbLine
 10
109.5073149204299
 20
266.6376502670317
 11
109.7573149208101
 21
266.6376502657616
  0
LINE
  5
8F
100
AcDbEntity
  8
0
  6
CONTINUOUS
 62
    7
370
   -1
100
AcDbLine
 10
109.0073149209402
 20
266.6376502670317
 11
108.7573149205609
 21
266.6376502670317
  0
LINE
  5
90
100
AcDbEntity
  8
0
  6
CONTINUOUS
 62
    7
370
   -1
100
AcDbLine
 10
122.2073149204307
 20
266.6376502670317
 11
121.9573149213202
 21
266.6376502670317
  0
LINE
  5
91
100
AcDbEntity
  8
0
  6
CONTINUOUS
 62
    7
370
   -1
100
AcDbLine
 10
118.8573149211797
 20
264.8410773907917
 11
119.8573149201602
 21
264.8410773907917
  0
LINE
  5
92
100
AcDbEntity
  8
0
  6
CONTINUOUS
 62
    7
370
   -1
100
AcDbLine
 10
115.3573149209405
 20
264.8410773907917
 11
116.3573149211906
 21
264.8410773907917
  0
LINE
  5
93
100
AcDbEntity
  8
0
  6
CONTINUOUS
 62
    7
370
   -1
100
AcDbLine
 10
111.8573149207004
 20
264.8410773907917
 11
112.8573149209505
 21
264.8410773907917
  0
LINE
  5
94
100
AcDbEntity
  8
0
  6
CONTINUOUS
 62
    7
370
   -1
100
AcDbLine
 10
118.8573149211797
 20
262.8410773915616
 11
119.8573149201602
 21
262.8410773915616
  0
LINE
  5
95
100
AcDbEntity
  8
0
  6
CONTINUOUS
 62
    7
370
   -1
100
AcDbLine
 10
111.8573149207004
 20
262.8410773915616
 11
112.8573149209505
 21
262.8410773915616
  0
LINE
  5
96
100
AcDbEntity
  8
0
  6
CONTINUOUS
 62
    7
370
   -1
100
AcDbLine
 10
122.7073149211901
 20
262.5910773911817
 11
122.9573149202997
 21
262.5910773911817
  0
LINE
  5
97
100
AcDbEntity
  8
0
  6
CONTINUOUS
 62
    7
370
   -1
100
AcDbLine
 10
109.0073149209402
 20
262.5910773911817
 11
108.7573149205609
 21
262.5910773911817
  0
LINE
  5
98
100
AcDbEntity
  8
0
  6
CONTINUOUS
 62
    7
370
   -1
100
AcDbLine
 10
109.5073149204299
 20
262.2160773918817
 11
109.7573149208101
 21
262.2160773918817
  0
LINE
  5
99
100
AcDbEntity
  8
0
  6
CONTINUOUS
 62
    7
370
   -1
100
AcDbLine
 10
122.2073149204307
 20
262.2160773918817
 11
121.9573149213202
 21
262.2160773918817
  0
LINE
  5
9A
100
AcDbEntity
  8
0
  6
CONTINUOUS
 62
    7
370
   -1
100
AcDbLine
 10
120.4573149203106
 20
260.7160773908717
 11
111.25731492055
 21
260.7160773908717
  0
LINE
  5
9B
100
AcDbEntity
  8
0
  6
CONTINUOUS
 62
    7
370
   -1
100
AcDbLine
 10
110.8483051784997
 20
269.2035142589916
 11
110.67152848354
 21
269.3802909539517
  0
LINE
  5
9C
100
AcDbEntity
  8
0
  6
CONTINUOUS
 62
    7
370
   -1
100
AcDbLine
 10
111.2018585684209
 20
268.8499608678017
 11
111.3786352633806
 21
268.6731841715716
  0
LINE
  5
9D
100
AcDbEntity
  8
0
  6
CONTINUOUS
 62
    7
370
   -1
100
AcDbLine
 10
120.4573149203106
 20
260.4660773917617
 11
111.25731492055
 21
260.4660773917617
  0
LINE
  5
9E
100
AcDbEntity
  8
0
  6
CONTINUOUS
 62
    7
370
   -1
100
AcDbLine
 10
111.6323149211202
 20
259.9660773910017
 11
120.0823149210109
 21
259.9660773910017
  0
LINE
  5
9F
100
AcDbEntity
  8
0
  6
CONTINUOUS
 62
    7
370
   -1
100
AcDbLine
 10
111.6323149211202
 20
259.7160773918917
 11
120.0823149210109
 21
259.7160773918917
  0
LINE
  5
A0
100
AcDbEntity
  8
0
  6
CONTINUOUS
 62
    7
370
   -1
100
AcDbLine
 10
109.8734314437197
 20
267.5215337431017
 11
110.0502081399509
 21
267.3447570481417
  0
LINE
  5
A1
100
AcDbEntity
  8
0
  6
CONTINUOUS
 62
    7
370
   -1
100
AcDbLine
 10
109.5198780538003
 20
267.8750871330217
 11
109.3431013588406
 21
268.0518638292517
  0
LINE
  5
A2
100
AcDbEntity
  8
0
  6
CONTINUOUS
 62
    7
370
   -1
100
AcDbLine
 10
122.9573149202997
 20
262.5910773911817
 11
122.9573149202997
 21
266.6376502670317
  0
LINE
  5
A3
100
AcDbEntity
  8
0
  6
CONTINUOUS
 62
    7
370
   -1
100
AcDbLine
 10
122.7073149211901
 20
262.5910773911817
 11
122.7073149211901
 21
266.6376502670317
  0
LINE
  5
A4
100
AcDbEntity
  8
0
  6
CONTINUOUS
 62
    7
370
   -1
100
AcDbLine
 10
122.4823149203403
 20
268.0410773915917
 11
122.4823149203403
 21
267.9316266960917
  0
LINE
  5
A5
100
AcDbEntity
  8
0
  6
CONTINUOUS
 62
    7
370
   -1
100
AcDbLine
 10
122.2073149204307
 20
266.6376502670317
 11
122.2073149204307
 21
262.2160773918817
  0
LINE
  5
A6
100
AcDbEntity
  8
0
  6
CONTINUOUS
 62
    7
370
   -1
100
AcDbLine
 10
121.9573149213202
 20
266.6376502670317
 11
121.9573149213202
 21
262.2160773918817
  0
LINE
  5
A7
100
AcDbEntity
  8
0
  6
CONTINUOUS
 62
    7
370
   -1
100
AcDbLine
 10
120.4573149203106
 20
260.4660773917617
 11
120.4573149203106
 21
260.7160773908717
  0
LINE
  5
A8
100
AcDbEntity
  8
0
  6
CONTINUOUS
 62
    7
370
   -1
100
AcDbLine
 10
120.0823149210109
 20
259.9660773910017
 11
120.0823149210109
 21
259.7160773918917
  0
LINE
  5
A9
100
AcDbEntity
  8
0
  6
CONTINUOUS
 62
    7
370
   -1
100
AcDbLine
 10
119.8573149201602
 20
262.8410773915616
 11
119.8573149201602
 21
264.8410773907917
  0
LINE
  5
AA
100
AcDbEntity
  8
0
  6
CONTINUOUS
 62
    7
370
   -1
100
AcDbLine
 10
119.6288877963697
 20
269.7160773918516
 11
119.6288877963697
 21
269.9660773909617
  0
LINE
  5
AB
100
AcDbEntity
  8
0
  6
CONTINUOUS
 62
    7
370
   -1
100
AcDbLine
 10
119.6288877963697
 20
269.2160773910917
 11
119.6288877951001
 21
268.9660773907117
  0
LINE
  5
AC
100
AcDbEntity
  8
0
  6
CONTINUOUS
 62
    7
370
   -1
100
AcDbLine
 10
119.6073149210506
 20
262.8410773915616
 11
119.6073149210506
 21
264.8410773907917
  0
LINE
  5
AD
100
AcDbEntity
  8
0
  6
CONTINUOUS
 62
    7
370
   -1
100
AcDbLine
 10
119.1073149202902
 20
264.8410773907917
 11
119.1073149202902
 21
262.8410773915616
  0
LINE
  5
AE
100
AcDbEntity
  8
0
  6
CONTINUOUS
 62
    7
370
   -1
100
AcDbLine
 10
118.8573149211797
 20
264.8410773907917
 11
118.8573149211797
 21
262.8410773915616
  0
LINE
  5
AF
100
AcDbEntity
  8
0
  6
CONTINUOUS
 62
    7
370
   -1
100
AcDbLine
 10
117.3572711800998
 20
259.6540830988117
 11
117.3573759830406
 21
259.7160773918917
  0
LINE
  5
B0
100
AcDbEntity
  8
0
  6
CONTINUOUS
 62
    7
370
   -1
100
AcDbLine
 10
116.3573149211906
 20
264.8410773907917
 11
116.3573149211906
 21
266.8410773912917
  0
LINE
  5
B1
100
AcDbEntity
  8
0
  6
CONTINUOUS
 62
    7
370
   -1
100
AcDbLine
 10
116.1073149208105
 20
264.8410773907917
 11
116.1073149208105
 21
266.8410773912917
  0
LINE
  5
B2
100
AcDbEntity
  8
0
  6
CONTINUOUS
 62
    7
370
   -1
100
AcDbLine
 10
115.6073149213198
 20
266.8410773912917
 11
115.6073149213198
 21
264.8410773907917
  0
LINE
  5
B3
100
AcDbEntity
  8
0
  6
CONTINUOUS
 62
    7
370
   -1
100
AcDbLine
 10
115.3573149209405
 20
266.8410773912917
 11
115.3573149209405
 21
264.8410773907917
  0
LINE
  5
B4
100
AcDbEntity
  8
0
  6
CONTINUOUS
 62
    7
370
   -1
100
AcDbLine
 10
112.8573149209505
 20
262.8410773915616
 11
112.8573149209505
 21
264.8410773907917
  0
LINE
  5
B5
100
AcDbEntity
  8
0
  6
CONTINUOUS
 62
    7
370
   -1
100
AcDbLine
 10
112.6073149205704
 20
262.8410773915616
 11
112.6073149205704
 21
264.8410773907917
  0
LINE
  5
B6
100
AcDbEntity
  8
0
  6
CONTINUOUS
 62
    7
370
   -1
100
AcDbLine
 10
112.1073149210797
 20
264.8410773907917
 11
112.1073149210797
 21
262.8410773915616
  0
LINE
  5
B7
100
AcDbEntity
  8
0
  6
CONTINUOUS
 62
    7
370
   -1
100
AcDbLine
 10
112.0857420457605
 20
269.2160773910917
 11
112.0857420457605
 21
268.9660773907117
  0
LINE
  5
B8
100
AcDbEntity
  8
0
  6
CONTINUOUS
 62
    7
370
   -1
100
AcDbLine
 10
112.0857420457605
 20
269.7160773918516
 11
112.0857420470302
 21
269.9660773909617
  0
LINE
  5
B9
100
AcDbEntity
  8
0
  6
CONTINUOUS
 62
    7
370
   -1
100
AcDbLine
 10
111.8573149207004
 20
264.8410773907917
 11
111.8573149207004
 21
262.8410773915616
  0
LINE
  5
BA
100
AcDbEntity
  8
0
  6
CONTINUOUS
 62
    7
370
   -1
100
AcDbLine
 10
111.6323149211202
 20
259.9660773910017
 11
111.6323149211202
 21
259.7160773918917
  0
LINE
  5
BB
100
AcDbEntity
  8
0
  6
CONTINUOUS
 62
    7
370
   -1
100
AcDbLine
 10
111.25731492055
 20
260.4660773917617
 11
111.25731492055
 21
260.7160773908717
  0
LINE
  5
BC
100
AcDbEntity
  8
0
  6
CONTINUOUS
 62
    7
370
   -1
100
AcDbLine
 10
109.7573149208101
 20
262.2160773918817
 11
109.7573149208101
 21
266.6376502670317
  0
LINE
  5
BD
100
AcDbEntity
  8
0
  6
CONTINUOUS
 62
    7
370
   -1
100
AcDbLine
 10
109.5073149204299
 20
262.2160773918817
 11
109.5073149204299
 21
266.6376502670317
  0
LINE
  5
BE
100
AcDbEntity
  8
0
  6
CONTINUOUS
 62
    7
370
   -1
100
AcDbLine
 10
109.2323149205203
 20
267.9316266960917
 11
109.2323149205203
 21
268.0410773915917
  0
LINE
  5
BF
100
AcDbEntity
  8
0
  6
CONTINUOUS
 62
    7
370
   -1
100
AcDbLine
 10
109.0073149209402
 20
266.6376502670317
 11
109.0073149209402
 21
262.5910773911817
  0
LINE
  5
C0
100
AcDbEntity
  8
0
  6
CONTINUOUS
 62
    7
370
   -1
100
AcDbLine
 10
108.7573149205609
 20
266.6376502670317
 11
108.7573149205609
 21
262.5910773911817
  0
LINE
  5
C1
100
AcDbEntity
  8
0
  6
CONTINUOUS
 62
    7
370
   -1
100
AcDbLine
 10
122.19475178833
 20
267.8750871330217
 11
122.3715284832897
 21
268.0518638292517
  0
LINE
  5
C2
100
AcDbEntity
  8
0
  6
CONTINUOUS
 62
    7
370
   -1
100
AcDbLine
 10
121.8411983971409
 20
267.5215337431017
 11
121.6644217009097
 21
267.3447570481417
  0
LINE
  5
C3
100
AcDbEntity
  8
0
  6
CONTINUOUS
 62
    7
370
   -1
100
AcDbLine
 10
120.8663246636306
 20
269.2035142589916
 11
121.0431013585903
 21
269.3802909526817
  0
LINE
  5
C4
100
AcDbEntity
  8
0
  6
CONTINUOUS
 62
    7
370
   -1
100
AcDbLine
 10
120.5127712724397
 20
268.8499608678017
 11
120.33599457748
 21
268.6731841728417
  0
LINE
  5
C5
100
AcDbEntity
  8
0
  6
CONTINUOUS
 62
    7
370
   -1
100
AcDbLine
 10
110.0502081399509
 20
267.3447570481417
 11
111.3786352646502
 21
268.6731841728417
  0
LINE
  5
C6
100
AcDbEntity
  8
0
  6
CONTINUOUS
 62
    7
370
   -1
100
AcDbLine
 10
109.8734314437197
 20
267.5215337431017
 11
111.2018585684209
 21
268.8499608678017
  0
LINE
  5
C7
100
AcDbEntity
  8
0
  6
CONTINUOUS
 62
    7
370
   -1
100
AcDbLine
 10
110.8483051784997
 20
269.2035142589916
 11
109.5198780538003
 21
267.8750871330217
  0
LINE
  5
C8
100
AcDbEntity
  8
0
  6
CONTINUOUS
 62
    7
370
   -1
100
AcDbLine
 10
110.67152848354
 20
269.3802909539517
 11
109.3431013588406
 21
268.0518638292517
  0
TEXT
  5
C9
100
AcDbEntity
  8
0
  6
ByLayer
 62
  256
370
   -1
100
AcDbText
 10
61.84425596571964
 20
160.7182707645315
 30
0
 40
4
  1
Mounting Bracket
 50
0
 41
1
 51
0
  7
dayus
 71
    0
210
0
220
0
230
1
100
AcDbText
  0
MTEXT
  5
CA
100
AcDbEntity
  8
0
  6
ByLayer
 62
  256
370
   -1
100
AcDbMText
 10
347.5251317827133
 20
180.5645468906605
 30
0
 40
4
 41
13.33333333333333
 71
    5
 72
    1
  1
44.00
  7
dayus
210
0
220
0
230
1
 50
90
 73
    1
 44
1
  0
SOLID
  5
CB
100
AcDbEntity
  8
0
  6
ByLayer
 62
  256
370
   -1
100
AcDbTrace
 10
347.1917984493803
 20
171.5645468904497
 30
0
 11
347.8584651160463
 21
171.5645468904497
 31
0
 12
347.5251317827133
 22
169.5645468904497
 32
0
 13
347.5251317827133
 23
169.5645468904497
 33
0
  0
SOLID
  5
CC
100
AcDbEntity
  8
0
  6
ByLayer
 62
  256
370
   -1
100
AcDbTrace
 10
347.1917984493803
 20
189.5645468908696
 30
0
 11
347.8584651160463
 21
189.5645468908696
 31
0
 12
347.5251317827133
 22
191.5645468908697
 32
0
 13
347.5251317827133
 23
191.5645468908697
 33
0
  0
LINE
  5
CD
100
AcDbEntity
  8
0
  6
ByLayer
 62
  256
370
   -1
100
AcDbLine
 10
347.5251317827133
 20
171.5645468904497
 11
347.5251317827133
 21
173.0312135573263
  0
LINE
  5
CE
100
AcDbEntity
  8
0
  6
ByLayer
 62
  256
370
   -1
100
AcDbLine
 10
347.5251317827133
 20
189.5645468908696
 11
347.5251317827133
 21
188.0978802239929
  0
LINE
  5
CF
100
AcDbEntity
  8
0
  6
ByLayer
 62
  256
370
   -1
100
AcDbLine
 10
338.7395751057411
 20
169.5645468904497
 11
348.5251317827133
 21
169.5645468904497
  0
LINE
  5
D0
100
AcDbEntity
  8
0
  6
ByLayer
 62
  256
370
   -1
100
AcDbLine
 10
327.2395751060412
 20
191.5645468908697
 11
348.5251317827133
 21
191.5645468908697
  0
MTEXT
  5
D1
100
AcDbEntity
  8
0
  6
ByLayer
 62
  256
370
   -1
100
AcDbMText
 10
210.5416443592949
 20
144.896758292869
 30
0
 40
4
 41
48.11111111111136
 71
    1
 72
    1
  1
8 OUTPUT IEC C13
  7
dayus
210
0
220
0
230
1
 50
0
 73
    1
 44
1
  0
LEADER
  5
D2
100
AcDbEntity
  8
0
  6
ByLayer
 62
  256
370
   -1
100
AcDbLeader
  3
Standard
 71
    1
 72
    0
 73
    3
 74
    0
 75
    0
 40
1
 41
10
 76
3
 76
3
 10
193.4145751054411
 20
128.9371935107574
 30
0
 10
208.4516443592949
 20
142.896758292869
 30
0
 10
210.4516443592949
 20
142.896758292869
 30
0
  0
MTEXT
  5
D3
100
AcDbEntity
  8
0
  6
ByLayer
 62
  256
370
   -1
100
AcDbMText
 10
68.58963385084644
 20
120.1871935101583
 30
0
 40
4
 41
11.55555555555605
 71
    5
 72
    1
  1
31.75
  7
dayus
210
0
220
0
230
1
 50
90
 73
    1
 44
1
  0
SOLID
  5
D4
100
AcDbEntity
  8
0
  6
ByLayer
 62
  256
370
   -1
100
AcDbTrace
 10
68.25630051751341
 20
110.2496935101576
 30
0
 11
68.92296718417947
 21
110.2496935101576
 31
0
 12
68.58963385084644
 22
112.2496935101576
 32
0
 13
68.58963385084644
 23
112.2496935101576
 33
0
  0
SOLID
  5
D5
100
AcDbEntity
  8
0
  6
ByLayer
 62
  256
370
   -1
100
AcDbTrace
 10
68.25630051751341
 20
130.1246935101576
 30
0
 11
68.92296718417947
 21
130.1246935101576
 31
0
 12
68.58963385084644
 22
128.1246935101576
 32
0
 13
68.58963385084644
 23
128.1246935101576
 33
0
  0
LINE
  5
D6
100
AcDbEntity
  8
0
  6
ByLayer
 62
  256
370
   -1
100
AcDbLine
 10
68.58963385084644
 20
110.2496935101576
 11
68.58963385084644
 21
108.2496935101576
  0
LINE
  5
D7
100
AcDbEntity
  8
0
  6
ByLayer
 62
  256
370
   -1
100
AcDbLine
 10
68.58963385084644
 20
130.1246935101576
 11
68.58963385084644
 21
132.1246935101576
  0
LINE
  5
D8
100
AcDbEntity
  8
0
  6
ByLayer
 62
  256
370
   -1
100
AcDbLine
 10
97.08957510596063
 20
112.2496935101576
 11
67.58963385084644
 21
112.2496935101576
  0
LINE
  5
D9
100
AcDbEntity
  8
0
  6
ByLayer
 62
  256
370
   -1
100
AcDbLine
 10
97.08957510596063
 20
128.1246935101576
 11
67.58963385084644
 21
128.1246935101576
  0
SOLID
  5
DA
100
AcDbEntity
  8
0
  6
ByLayer
 62
  256
370
   -1
100
AcDbTrace
 10
103.7895751046608
 20
136.9787598334544
 30
0
 11
103.7895751046608
 21
136.3120931667879
 31
0
 12
105.7895751046608
 22
136.6454265001211
 32
0
 13
105.7895751046608
 23
136.6454265001211
 33
0
  0
SOLID
  5
DB
100
AcDbEntity
  8
0
  6
ByLayer
 62
  256
370
   -1
100
AcDbTrace
 10
100.2895751059604
 20
136.9787598334544
 30
0
 11
100.2895751059604
 21
136.3120931667879
 31
0
 12
98.28957510596048
 22
136.6454265001211
 32
0
 13
98.28957510596048
 23
136.6454265001211
 33
0
  0
MTEXT
  5
DC
100
AcDbEntity
  8
0
  6
ByLayer
 62
  256
370
   -1
100
AcDbMText
 10
102.0395751053111
 20
139.9454265001211
 30
0
 40
4
 41
11.5555555555558
 71
    5
 72
    1
  1
15.00
  7
dayus
210
0
220
0
230
1
 50
0
 73
    1
 44
1
  0
LINE
  5
DD
100
AcDbEntity
  8
0
  6
ByLayer
 62
  256
370
   -1
100
AcDbLine
 10
100.2895751059604
 20
136.6454265001211
 11
103.7895751046608
 21
136.6454265001211
  0
LINE
  5
DE
100
AcDbEntity
  8
0
  6
ByLayer
 62
  256
370
   -1
100
AcDbLine
 10
105.7895751046608
 20
129.3246935101576
 11
105.7895751046608
 21
137.6454265001211
  0
LINE
  5
DF
100
AcDbEntity
  8
0
  6
ByLayer
 62
  256
370
   -1
100
AcDbLine
 10
98.28957510596048
 20
129.3246935101576
 11
98.28957510596048
 21
137.6454265001211
  0
SOLID
  5
E0
100
AcDbEntity
  8
0
  6
ByLayer
 62
  256
370
   -1
100
AcDbTrace
 10
91.03029717421578
 20
124.3746935100375
 30
0
 11
91.69696384088184
 21
124.3746935100375
 31
0
 12
91.36363050754881
 22
126.3746935100375
 32
0
 13
91.36363050754881
 23
126.3746935100375
 33
0
  0
SOLID
  5
E1
100
AcDbEntity
  8
0
  6
ByLayer
 62
  256
370
   -1
100
AcDbTrace
 10
91.03029717421578
 20
131.8746935102776
 30
0
 11
91.69696384088184
 21
131.8746935102776
 31
0
 12
91.36363050754881
 22
129.8746935102776
 32
0
 13
91.36363050754881
 23
129.8746935102776
 33
0
  0
MTEXT
  5
E2
100
AcDbEntity
  8
0
  6
ByLayer
 62
  256
370
   -1
100
AcDbMText
 10
88.06363050754862
 20
128.1246935101583
 30
0
 40
4
 41
9.333333333333332
 71
    5
 72
    1
  1
7.00
  7
dayus
210
0
220
0
230
1
 50
90
 73
    1
 44
1
  0
LINE
  5
E3
100
AcDbEntity
  8
0
  6
ByLayer
 62
  256
370
   -1
100
AcDbLine
 10
91.36363050754881
 20
124.3746935100375
 11
91.36363050754881
 21
122.3746935100375
  0
LINE
  5
E4
100
AcDbEntity
  8
0
  6
ByLayer
 62
  256
370
   -1
100
AcDbLine
 10
91.36363050754881
 20
131.8746935102776
 11
91.36363050754881
 21
133.8746935102776
  0
LINE
  5
E5
100
AcDbEntity
  8
0
  6
ByLayer
 62
  256
370
   -1
100
AcDbLine
 10
98.8395751060807
 20
126.3746935100375
 11
90.36363050754881
 21
126.3746935100375
  0
LINE
  5
E6
100
AcDbEntity
  8
0
  6
ByLayer
 62
  256
370
   -1
100
AcDbLine
 10
98.8395751060807
 20
129.8746935102776
 11
90.36363050754881
 21
129.8746935102776
  0
SOLID
  5
E7
100
AcDbEntity
  8
0
  6
ByLayer
 62
  256
370
   -1
100
AcDbTrace
 10
80.53284975463157
 20
118.1871935101576
 30
0
 11
81.19951642129763
 21
118.1871935101576
 31
0
 12
80.8661830879646
 22
120.1871935101576
 32
0
 13
80.8661830879646
 23
120.1871935101576
 33
0
  0
SOLID
  5
E8
100
AcDbEntity
  8
0
  6
ByLayer
 62
  256
370
   -1
100
AcDbTrace
 10
80.53284975463157
 20
111.1871935086774
 30
0
 11
81.19951642129763
 21
111.1871935086774
 31
0
 12
80.8661830879646
 22
109.1871935086774
 32
0
 13
80.8661830879646
 23
109.1871935086774
 33
0
  0
MTEXT
  5
E9
100
AcDbEntity
  8
0
  6
ByLayer
 62
  256
370
   -1
100
AcDbMText
 10
77.56618308796442
 20
114.6871935094182
 30
0
 40
4
 41
12.44444444444444
 71
    5
 72
    1
  1
22.00
  7
dayus
210
0
220
0
230
1
 50
90
 73
    1
 44
1
  0
LINE
  5
EA
100
AcDbEntity
  8
0
  6
ByLayer
 62
  256
370
   -1
100
AcDbLine
 10
80.8661830879646
 20
111.1871935086774
 11
80.8661830879646
 21
118.1871935101576
  0
LINE
  5
EB
100
AcDbEntity
  8
0
  6
ByLayer
 62
  256
370
   -1
100
AcDbLine
 10
97.08957510596063
 20
120.1871935101576
 11
79.8661830879646
 21
120.1871935101576
  0
LINE
  5
EC
100
AcDbEntity
  8
0
  6
ByLayer
 62
  256
370
   -1
100
AcDbLine
 10
95.83957510406071
 20
109.1871935086774
 11
79.8661830879646
 21
109.1871935086774
  0
MTEXT
  5
ED
100
AcDbEntity
  8
0
  6
ByLayer
 62
  256
370
   -1
100
AcDbMText
 10
346.5795393631925
 20
120.1871935101585
 30
0
 40
4
 41
13.33333333333333
 71
    5
 72
    1
  1
44.00
  7
dayus
210
0
220
0
230
1
 50
90
 73
    1
 44
1
  0
SOLID
  5
EE
100
AcDbEntity
  8
0
  6
ByLayer
 62
  256
370
   -1
100
AcDbTrace
 10
346.2462060298594
 20
111.1871935112176
 30
0
 11
346.9128726965255
 21
111.1871935112176
 31
0
 12
346.5795393631925
 22
109.1871935112176
 32
0
 13
346.5795393631925
 23
109.1871935112176
 33
0
  0
SOLID
  5
EF
100
AcDbEntity
  8
0
  6
ByLayer
 62
  256
370
   -1
100
AcDbTrace
 10
346.2462060298594
 20
129.1871935090976
 30
0
 11
346.9128726965255
 21
129.1871935090976
 31
0
 12
346.5795393631925
 22
131.1871935090976
 32
0
 13
346.5795393631925
 23
131.1871935090976
 33
0
  0
LINE
  5
F0
100
AcDbEntity
  8
0
  6
ByLayer
 62
  256
370
   -1
100
AcDbLine
 10
346.5795393631925
 20
111.1871935112176
 11
346.5795393631925
 21
112.6538601768243
  0
LINE
  5
F1
100
AcDbEntity
  8
0
  6
ByLayer
 62
  256
370
   -1
100
AcDbLine
 10
346.5795393631925
 20
129.1871935090976
 11
346.5795393631925
 21
127.7205268434909
  0
LINE
  5
F2
100
AcDbEntity
  8
0
  6
ByLayer
 62
  256
370
   -1
100
AcDbLine
 10
338.2395751049807
 20
109.1871935112176
 11
347.5795393631925
 21
109.1871935112176
  0
LINE
  5
F3
100
AcDbEntity
  8
0
  6
ByLayer
 62
  256
370
   -1
100
AcDbLine
 10
338.2395751049807
 20
131.1871935090976
 11
347.5795393631925
 21
131.1871935090976
  0
MTEXT
  5
F4
100
AcDbEntity
  8
0
  6
ByLayer
 62
  256
370
   -1
100
AcDbMText
 10
217.0395751057913
 20
82.64496915663949
 30
0
 40
4
 41
16
 71
    5
 72
    1
  1
482.00
  7
dayus
210
0
220
0
230
1
 50
0
 73
    1
 44
1
  0
SOLID
  5
F5
100
AcDbEntity
  8
0
  6
ByLayer
 62
  256
370
   -1
100
AcDbTrace
 10
98.53957510584132
 20
82.97830248997275
 30
0
 11
98.53957510584132
 21
82.31163582330623
 31
0
 12
96.53957510584134
 22
82.64496915663949
 32
0
 13
96.53957510584134
 23
82.64496915663949
 33
0
  0
SOLID
  5
F6
100
AcDbEntity
  8
0
  6
ByLayer
 62
  256
370
   -1
100
AcDbTrace
 10
335.5395751057413
 20
82.97830248997275
 30
0
 11
335.5395751057413
 21
82.31163582330623
 31
0
 12
337.5395751057413
 22
82.64496915663949
 32
0
 13
337.5395751057413
 23
82.64496915663949
 33
0
  0
LINE
  5
F7
100
AcDbEntity
  8
0
  6
ByLayer
 62
  256
370
   -1
100
AcDbLine
 10
98.53957510584132
 20
82.64496915663949
 11
207.5062417724575
 21
82.64496915663949
  0
LINE
  5
F8
100
AcDbEntity
  8
0
  6
ByLayer
 62
  256
370
   -1
100
AcDbLine
 10
335.5395751057413
 20
82.64496915663949
 11
226.5729084391251
 21
82.64496915663949
  0
LINE
  5
F9
100
AcDbEntity
  8
0
  6
ByLayer
 62
  256
370
   -1
100
AcDbLine
 10
96.53957510584134
 20
108.4871935094374
 11
96.53957510584134
 21
81.64496915663949
  0
LINE
  5
FA
100
AcDbEntity
  8
0
  6
ByLayer
 62
  256
370
   -1
100
AcDbLine
 10
337.5395751057413
 20
108.4871935094374
 11
337.5395751057413
 21
81.64496915663949
  0
MTEXT
  5
FB
100
AcDbEntity
  8
0
  6
ByLayer
 62
  256
370
   -1
100
AcDbMText
 10
217.0395751051565
 20
90.69170859818587
 30
0
 40
4
 41
16.00000000000025
 71
    5
 72
    1
  1
460.00
  7
dayus
210
0
220
0
230
1
 50
0
 73
    1
 44
1
  0
SOLID
  5
FC
100
AcDbEntity
  8
0
  6
ByLayer
 62
  256
370
   -1
100
AcDbTrace
 10
104.0395751053111
 20
91.02504193151913
 30
0
 11
104.0395751053111
 21
90.35837526485261
 31
0
 12
102.0395751053111
 22
90.69170859818587
 32
0
 13
102.0395751053111
 23
90.69170859818587
 33
0
  0
SOLID
  5
FD
100
AcDbEntity
  8
0
  6
ByLayer
 62
  256
370
   -1
100
AcDbTrace
 10
330.039575105001
 20
91.02504193151913
 30
0
 11
330.039575105001
 21
90.35837526485261
 31
0
 12
332.039575105001
 22
90.69170859818587
 32
0
 13
332.039575105001
 23
90.69170859818587
 33
0
  0
LINE
  5
FE
100
AcDbEntity
  8
0
  6
ByLayer
 62
  256
370
   -1
100
AcDbLine
 10
104.0395751053111
 20
90.69170859818587
 11
207.8395751051567
 21
90.69170859818587
  0
LINE
  5
FF
100
AcDbEntity
  8
0
  6
ByLayer
 62
  256
370
   -1
100
AcDbLine
 10
330.039575105001
 20
90.69170859818587
 11
226.2395751051563
 21
90.69170859818587
  0
LINE
  5
100
100
AcDbEntity
  8
0
  6
ByLayer
 62
  256
370
   -1
100
AcDbLine
 10
102.0395751053111
 20
109.2996935100375
 11
102.0395751053111
 21
89.69170859818587
  0
LINE
  5
101
100
AcDbEntity
  8
0
  6
ByLayer
 62
  256
370
   -1
100
AcDbLine
 10
332.039575105001
 20
109.2996935100375
 11
332.039575105001
 21
89.69170859818587
  0
MTEXT
  5
102
100
AcDbEntity
  8
0
  6
ByLayer
 62
  256
370
   -1
100
AcDbMText
 10
217.0395751045207
 20
98.67149969472484
 30
0
 40
4
 41
16.00000000000025
 71
    5
 72
    1
  1
432.00
  7
dayus
210
0
220
0
230
1
 50
0
 73
    1
 44
1
  0
SOLID
  5
103
100
AcDbEntity
  8
0
  6
ByLayer
 62
  256
370
   -1
100
AcDbTrace
 10
323.0395751045207
 20
99.0048330280581
 30
0
 11
323.0395751045207
 21
98.33816636139159
 31
0
 12
325.0395751045207
 22
98.67149969472484
 32
0
 13
325.0395751045207
 23
98.67149969472484
 33
0
  0
SOLID
  5
104
100
AcDbEntity
  8
0
  6
ByLayer
 62
  256
370
   -1
100
AcDbTrace
 10
111.0395751045207
 20
99.0048330280581
 30
0
 11
111.0395751045207
 21
98.33816636139159
 31
0
 12
109.0395751045207
 22
98.67149969472484
 32
0
 13
109.0395751045207
 23
98.67149969472484
 33
0
  0
LINE
  5
105
100
AcDbEntity
  8
0
  6
ByLayer
 62
  256
370
   -1
100
AcDbLine
 10
323.0395751045207
 20
98.67149969472484
 11
226.5729084378545
 21
98.67149969472484
  0
LINE
  5
106
100
AcDbEntity
  8
0
  6
ByLayer
 62
  256
370
   -1
100
AcDbLine
 10
111.0395751045207
 20
98.67149969472484
 11
207.506241771187
 21
98.67149969472484
  0
LINE
  5
107
100
AcDbEntity
  8
0
  6
ByLayer
 62
  256
370
   -1
100
AcDbLine
 10
325.0395751045207
 20
107.9873996957174
 11
325.0395751045207
 21
97.67149969472484
  0
LINE
  5
108
100
AcDbEntity
  8
0
  6
ByLayer
 62
  256
370
   -1
100
AcDbLine
 10
109.0395751045207
 20
107.9871935112176
 11
109.0395751045207
 21
97.67149969472484
  0
SPLINE
  5
109
100
AcDbEntity
  8
0
  6
CONTINUOUS
 62
    7
370
   -1
100
AcDbSpline
210
0
220
0
230
0
 70
    8
 71
    3
 72
   15
 73
   11
 74
    0
 42
1e-007
 43
1e-007
 40
0
 40
0
 40
0
 40
0
 40
0.023707726313201
 40
0.0946266490500724
 40
0.2119043243216774
 40
0.3709115589210335
 40
0.5655115067008211
 40
0.7871006938221428
 40
1.027125083102496
 40
1.27550896758182
 40
1.27550896758182
 40
1.27550896758182
 40
1.27550896758182
 10
111.3252893910212
 20
231.968337215719
 30
0
 10
111.330816998915
 20
231.9626895392482
 30
0
 10
111.3529044299084
 20
231.940171665122
 30
0
 10
111.4026395118208
 20
231.8900125439784
 30
0
 10
111.4855117389634
 20
231.8092162467118
 30
0
 10
111.599755140247
 20
231.7015617279462
 30
0
 10
111.7426892665016
 20
231.5737417594295
 30
0
 10
111.9090550949104
 20
231.4316712877334
 30
0
 10
112.093922091286
 20
231.283889008763
 30
0
 10
112.2225902664395
 20
231.1840659841823
 30
0
 10
112.2895751053211
 20
231.1354040708191
 30
0
  0
SPLINE
  5
10A
100
AcDbEntity
  8
0
  6
CONTINUOUS
 62
    7
370
   -1
100
AcDbSpline
210
0
220
0
230
0
 70
    8
 71
    3
 72
   15
 73
   11
 74
    0
 42
1e-007
 43
1e-007
 40
0
 40
0
 40
0
 40
0
 40
0.0237077263137567
 40
0.09462664545848
 40
0.2119043243213674
 40
0.3709115571807143
 40
0.5655115049597487
 40
0.7871006920818365
 40
1.027125080974789
 40
1.275508967473684
 40
1.275508967473684
 40
1.275508967473684
 40
1.275508967473684
 10
120.7538608183213
 20
226.3024709249191
 30
0
 10
120.7483332104275
 20
226.30811860139
 30
0
 10
120.7262457802744
 20
226.3306364746643
 30
0
 10
120.6765106983121
 20
226.3807955957578
 30
0
 10
120.5936384720144
 20
226.4615918930696
 30
0
 10
120.4793950680241
 20
226.5692464098524
 30
0
 10
120.3364609432374
 20
226.6970663791266
 30
0
 10
120.1700951135972
 20
226.8391368491285
 30
0
 10
119.9852281213298
 20
226.986919134089
 30
0
 10
119.8565599434469
 20
227.0867421560601
 30
0
 10
119.7895751040214
 20
227.1354040698191
 30
0
  0
SPLINE
  5
10B
100
AcDbEntity
  8
0
  6
CONTINUOUS
 62
    7
370
   -1
100
AcDbSpline
210
0
220
0
230
0
 70
    8
 71
    3
 72
   15
 73
   11
 74
    0
 42
1e-007
 43
1e-007
 40
0
 40
0
 40
0
 40
0
 40
0.0232591462773953
 40
0.092906369702458
 40
0.2083543782777224
 40
0.3653180790031241
 40
0.5580419004925679
 40
0.7781911431828368
 40
1.017358466531754
 40
1.265476702784315
 40
1.265476702784315
 40
1.265476702784315
 40
1.265476702784315
 10
111.0395751059614
 20
230.938179707839
 30
0
 10
111.0472234785275
 20
230.9394494173156
 30
0
 10
111.0777733571822
 20
230.9445259048967
 30
0
 10
111.1462839294172
 20
230.9559194088798
 30
0
 10
111.2588087267186
 20
230.9743222041571
 30
0
 10
111.4118394127727
 20
230.9992359364037
 30
0
 10
111.5994306267676
 20
231.0290486036899
 30
0
 10
111.8140922840148
 20
231.0631200554263
 30
0
 10
112.0472558368392
 20
231.0983398424651
 30
0
 10
112.2076585080904
 20
231.124003783081
 30
0
 10
112.2895751053211
 20
231.1354040708191
 30
0
  0
SPLINE
  5
10C
100
AcDbEntity
  8
0
  6
CONTINUOUS
 62
    7
370
   -1
100
AcDbSpline
210
0
220
0
230
0
 70
    8
 71
    3
 72
   15
 73
   11
 74
    0
 42
1e-007
 43
1e-007
 40
0
 40
0
 40
0
 40
0
 40
0.0232591462773953
 40
0.0929063726250919
 40
0.2083543782825311
 40
0.3653180790079328
 40
0.5580419034052752
 40
0.7781911457002911
 40
1.017358469050108
 40
1.265476705301752
 40
1.265476705301752
 40
1.265476705301752
 40
1.265476705301752
 10
121.0395751059213
 20
227.3326284327991
 30
0
 10
121.0319267333552
 20
227.3313587233225
 30
0
 10
121.0013768536919
 20
227.3262822358512
 30
0
 10
120.9328662821581
 20
227.3148887276491
 30
0
 10
120.8203414839327
 20
227.2964859379658
 30
0
 10
120.6673107981387
 20
227.2715722041777
 30
0
 10
120.4797195838946
 20
227.2417595331169
 30
0
 10
120.2650579250039
 20
227.2076880864178
 30
0
 10
120.0318943725624
 20
227.1724682977957
 30
0
 10
119.8714917012512
 20
227.1468043575571
 30
0
 10
119.7895751040214
 20
227.1354040698191
 30
0
  0
SPLINE
  5
10D
100
AcDbEntity
  8
0
  6
CONTINUOUS
 62
    7
370
   -1
100
AcDbSpline
210
0
220
0
230
0
 70
    8
 71
    3
 72
   15
 73
   11
 74
    0
 42
1e-007
 43
1e-007
 40
0
 40
0
 40
0
 40
0
 40
0.2481180621347634
 40
0.4872881705549008
 40
0.7074385957502126
 40
0.9001612551658483
 40
1.057123865708033
 40
1.17257103360822
 40
1.242217727579775
 40
1.265476704730044
 40
1.265476704730044
 40
1.265476704730044
 40
1.265476704730044
 10
119.7895751040214
 20
231.1354040708191
 30
0
 10
119.871491300888
 20
231.1240013276038
 30
0
 10
120.0318952681445
 20
231.0983404220786
 30
0
 10
120.2650599493554
 20
231.063119526197
 30
0
 10
120.479722574114
 20
231.0290482406376
 30
0
 10
120.6673134079992
 20
230.9992354466912
 30
0
 10
120.8203430963604
 20
230.9743220039876
 30
0
 10
120.9328670632058
 20
230.9559192125207
 30
0
 10
121.0013771459353
 20
230.944525893087
 30
0
 10
121.03192679113
 20
230.9394494210928
 30
0
 10
121.0395751059213
 20
230.938179707839
 30
0
  0
SPLINE
  5
10E
100
AcDbEntity
  8
0
  6
CONTINUOUS
 62
    7
370
   -1
100
AcDbSpline
210
0
220
0
230
0
 70
    8
 71
    3
 72
   15
 73
   11
 74
    0
 42
1e-007
 43
1e-007
 40
0
 40
0
 40
0
 40
0
 40
0.2483837061826685
 40
0.4884108927218188
 40
0.7100012785075247
 40
0.9046000663830973
 40
1.063606196537905
 40
1.180883035308419
 40
1.251801393665374
 40
1.275508960773453
 40
1.275508960773453
 40
1.275508960773453
 40
1.275508960773453
 10
119.7895751040214
 20
231.1354040708191
 30
0
 10
119.8565584357238
 20
231.1840679576842
 30
0
 10
119.9852291498337
 20
231.2838889523125
 30
0
 10
120.1700966003536
 20
231.4316727970036
 30
0
 10
120.3364633375113
 20
231.5737436325069
 30
0
 10
120.4793969471266
 20
231.7015636493338
 30
0
 10
120.5936397675441
 20
231.8092172787369
 30
0
 10
120.6765111371042
 20
231.8900132561686
 30
0
 10
120.7262460727552
 20
231.9401717893063
 30
0
 10
120.7483332767979
 20
231.9626895485456
 30
0
 10
120.7538608183213
 20
231.968337215719
 30
0
  0
SPLINE
  5
10F
100
AcDbEntity
  8
0
  6
CONTINUOUS
 62
    7
370
   -1
100
AcDbSpline
210
0
220
0
230
0
 70
    8
 71
    3
 72
   15
 73
   11
 74
    0
 42
1e-007
 43
1e-007
 40
0
 40
0
 40
0
 40
0
 40
0.0233166639360908
 40
0.09312280060805631
 40
0.2087696358044208
 40
0.36599767372541
 40
0.5590339766507098
 40
0.7803289421476843
 40
1.019579982405842
 40
1.265476689374899
 40
1.265476689374899
 40
1.265476689374899
 40
1.265476689374899
 10
111.0395751059614
 20
227.3326284327991
 30
0
 10
111.0472424263889
 20
227.331355789255
 30
0
 10
111.0778635724182
 20
227.3262680748959
 30
0
 10
111.1465106688065
 20
227.3148517463012
 30
0
 10
111.259240136108
 20
227.2964156500001
 30
0
 10
111.4125266394985
 20
227.2714642748613
 30
0
 10
111.6006841831004
 20
227.2415568211902
 30
0
 10
111.8158555344935
 20
227.2074181313459
 30
0
 10
112.048691299964
 20
227.1722416040782
 30
0
 10
112.2083948655399
 20
227.1467232203545
 30
0
 10
112.2895751053211
 20
227.1354040698191
 30
0
  0
SPLINE
  5
110
100
AcDbEntity
  8
0
  6
CONTINUOUS
 62
    7
370
   -1
100
AcDbSpline
210
0
220
0
230
0
 70
    8
 71
    3
 72
   15
 73
   11
 74
    0
 42
1e-007
 43
1e-007
 40
0
 40
0
 40
0
 40
0
 40
0.0237660574160759
 40
0.0948464968651946
 40
0.212325493196827
 40
0.3715987113818202
 40
0.5665116448871415
 40
0.7892489775417048
 40
1.029351356149288
 40
1.27550881741165
 40
1.27550881741165
 40
1.27550881741165
 40
1.27550881741165
 10
111.3252893910212
 20
226.3024709249191
 30
0
 10
111.3308310548627
 20
226.3081320510527
 30
0
 10
111.3529712024174
 20
226.3307008661123
 30
0
 10
111.4028056618754
 20
226.3809591459518
 30
0
 10
111.4858309197016
 20
226.4618988377038
 30
0
 10
111.6002751281321
 20
226.5697194950706
 30
0
 10
111.743645155856
 20
226.6979159077214
 30
0
 10
111.9104374065646
 20
226.8402774219136
 30
0
 10
112.0950716617326
 20
226.987817512991
 30
0
 10
112.2232030739287
 20
227.0871613078119
 30
0
 10
112.2895751053211
 20
227.1354040698191
 30
0
  0
SPLINE
  5
111
100
AcDbEntity
  8
0
  6
CONTINUOUS
 62
    7
370
   -1
100
AcDbSpline
210
0
220
0
230
0
 70
    8
 71
    3
 72
   15
 73
   11
 74
    0
 42
1e-007
 43
1e-007
 40
0
 40
0
 40
0
 40
0
 40
0.2389787235347965
 40
0.475727555002533
 40
0.7083520979753145
 40
0.932095645333303
 40
1.14643056531679
 40
1.351866161951091
 40
1.552330951165819
 40
1.751289407747738
 40
1.751289407747738
 40
1.751289407747738
 40
1.751289407747738
 10
120.7538608183213
 20
192.8145468902298
 30
0
 10
120.7538702187157
 20
192.8942064641867
 30
0
 10
120.7429180795625
 20
193.0530050090431
 30
0
 10
120.6935160923694
 20
193.2847266775729
 30
0
 10
120.6106791018255
 20
193.5015212702731
 30
0
 10
120.4953687857724
 20
193.6945529737695
 30
0
 10
120.3501488024176
 20
193.8545683652396
 30
0
 10
120.179406355599
 20
193.9744591534263
 30
0
 10
119.9896390186213
 20
194.0482171819819
 30
0
 10
119.8558945834611
 20
194.0645184767215
 30
0
 10
119.7895751040214
 20
194.0645468921298
 30
0
  0
SPLINE
  5
112
100
AcDbEntity
  8
0
  6
CONTINUOUS
 62
    7
370
   -1
100
AcDbSpline
210
0
220
0
230
0
 70
    8
 71
    3
 72
   15
 73
   11
 74
    0
 42
1e-007
 43
1e-007
 40
0
 40
0
 40
0
 40
0
 40
0.2392732500529596
 40
0.4762753226198006
 40
0.7090431557963707
 40
0.9329400258394258
 40
1.147426098577226
 40
1.353730250024673
 40
1.554126636173998
 40
1.751291216424974
 40
1.751291216424974
 40
1.751291216424974
 40
1.751291216424974
 10
111.3252893910212
 20
192.8145468902298
 30
0
 10
111.3252803917876
 20
192.8943046397398
 30
0
 10
111.3362588812024
 20
193.0532865756197
 30
0
 10
111.3857696356072
 20
193.2852234437775
 30
0
 10
111.4687657797922
 20
193.5021565339141
 30
0
 10
111.584278799246
 20
193.6952459962585
 30
0
 10
111.729906036453
 20
193.8554275841582
 30
0
 10
111.901120545398
 20
193.9752389960963
 30
0
 10
112.0907458542342
 20
194.0484457414845
 30
0
 10
112.2238535841707
 20
194.0645197612632
 30
0
 10
112.2895751053211
 20
194.0645468921298
 30
0
  0
ARC
  5
113
100
AcDbEntity
  8
0
  6
CONTINUOUS
 62
    7
370
   -1
100
AcDbCircle
 10
324.5895751037615
 20
239.6354040710392
 40
0.50000000076
100
AcDbArc
 50
0
 51
90
  0
ARC
  5
114
100
AcDbEntity
  8
0
  6
CONTINUOUS
 62
    7
370
   -1
100
AcDbCircle
 10
337.0895751049811
 20
239.6354040710392
 40
0.50000000076
100
AcDbArc
 50
0
 51
90
  0
CIRCLE
  5
115
100
AcDbEntity
  8
0
  6
CONTINUOUS
 62
    7
370
   -1
100
AcDbCircle
 10
318.0395751056412
 20
237.635404070539
 40
0.69999999954
  0
CIRCLE
  5
116
100
AcDbEntity
  8
0
  6
CONTINUOUS
 62
    7
370
   -1
100
AcDbCircle
 10
318.0395751056412
 20
237.635404070539
 40
1.200000000299999
  0
ARC
  5
117
100
AcDbEntity
  8
0
  6
CONTINUOUS
 62
    7
370
   -1
100
AcDbCircle
 10
334.0895751055013
 20
237.072904070319
 40
1.75000000012
100
AcDbArc
 50
270
 51
90
  0
ARC
  5
118
100
AcDbEntity
  8
0
  6
CONTINUOUS
 62
    7
370
   -1
100
AcDbCircle
 10
330.0895751045009
 20
237.072904070319
 40
1.75000000012
100
AcDbArc
 50
90
 51
270
  0
ARC
  5
119
100
AcDbEntity
  8
0
  6
CONTINUOUS
 62
    7
370
   -1
100
AcDbCircle
 10
317.0395751041215
 20
234.735404069179
 40
2.500000001259999
100
AcDbArc
 50
64.08282730449953
 51
77.63025618199978
  0
ARC
  5
11A
100
AcDbEntity
  8
0
  6
CONTINUOUS
 62
    7
370
   -1
100
AcDbCircle
 10
334.0895751055013
 20
229.1354040703191
 40
1.75000000012
100
AcDbArc
 50
270
 51
90
  0
ARC
  5
11B
100
AcDbEntity
  8
0
  6
CONTINUOUS
 62
    7
370
   -1
100
AcDbCircle
 10
330.0895751045009
 20
229.1354040703191
 40
1.75000000012
100
AcDbArc
 50
90
 51
270
  0
CIRCLE
  5
11C
100
AcDbEntity
  8
0
  6
CONTINUOUS
 62
    7
370
   -1
100
AcDbCircle
 10
217.0395751045207
 20
237.635404070539
 40
0.69999999954
  0
CIRCLE
  5
11D
100
AcDbEntity
  8
0
  6
CONTINUOUS
 62
    7
370
   -1
100
AcDbCircle
 10
217.0395751045207
 20
237.635404070539
 40
1.200000000299999
  0
ARC
  5
11E
100
AcDbEntity
  8
0
  6
CONTINUOUS
 62
    7
370
   -1
100
AcDbCircle
 10
337.0895751049811
 20
218.635404069599
 40
0.50000000076
100
AcDbArc
 50
270
 51
0
  0
ARC
  5
11F
100
AcDbEntity
  8
0
  6
CONTINUOUS
 62
    7
370
   -1
100
AcDbCircle
 10
334.0895751055013
 20
221.197904070319
 40
1.75000000012
100
AcDbArc
 50
270
 51
90
  0
ARC
  5
120
100
AcDbEntity
  8
0
  6
CONTINUOUS
 62
    7
370
   -1
100
AcDbCircle
 10
330.0895751045009
 20
221.197904070319
 40
1.75000000012
100
AcDbArc
 50
90
 51
270
  0
ARC
  5
121
100
AcDbEntity
  8
0
  6
CONTINUOUS
 62
    7
370
   -1
100
AcDbCircle
 10
109.539575105281
 20
239.6354040710392
 40
0.50000000076
100
AcDbArc
 50
90
 51
180
  0
ARC
  5
122
100
AcDbEntity
  8
0
  6
CONTINUOUS
 62
    7
370
   -1
100
AcDbCircle
 10
97.03957510406055
 20
239.6354040710392
 40
0.50000000076
100
AcDbArc
 50
90
 51
180
  0
ARC
  5
123
100
AcDbEntity
  8
0
  6
CONTINUOUS
 62
    7
370
   -1
100
AcDbCircle
 10
100.0395751060805
 20
237.072904070319
 40
1.75000000012
100
AcDbArc
 50
90
 51
270
  0
ARC
  5
124
100
AcDbEntity
  8
0
  6
CONTINUOUS
 62
    7
370
   -1
100
AcDbCircle
 10
104.0395751045407
 20
237.072904070319
 40
1.75000000012
100
AcDbArc
 50
270
 51
90
  0
ARC
  5
125
100
AcDbEntity
  8
0
  6
CONTINUOUS
 62
    7
370
   -1
100
AcDbCircle
 10
100.0395751060805
 20
229.1354040703191
 40
1.75000000012
100
AcDbArc
 50
90
 51
270
  0
ARC
  5
126
100
AcDbEntity
  8
0
  6
CONTINUOUS
 62
    7
370
   -1
100
AcDbCircle
 10
104.0395751045407
 20
229.1354040703191
 40
1.75000000012
100
AcDbArc
 50
270
 51
90
  0
ARC
  5
127
100
AcDbEntity
  8
0
  6
CONTINUOUS
 62
    7
370
   -1
100
AcDbCircle
 10
113.0395736688206
 20
230.938180144719
 40
1.999996172719999
100
AcDbArc
 50
148.9972704054998
 51
180.0000125045999
  0
ARC
  5
128
100
AcDbEntity
  8
0
  6
CONTINUOUS
 62
    7
370
   -1
100
AcDbCircle
 10
119.0395751054211
 20
230.938179707839
 40
2.0000000005
100
AcDbArc
 50
0
 51
31.0027191338998
  0
ARC
  5
129
100
AcDbEntity
  8
0
  6
CONTINUOUS
 62
    7
370
   -1
100
AcDbCircle
 10
116.0395751059413
 20
229.1354040703191
 40
4.249999998839999
100
AcDbArc
 50
208.0724869359002
 51
331.9275130640997
  0
ARC
  5
12A
100
AcDbEntity
  8
0
  6
CONTINUOUS
 62
    7
370
   -1
100
AcDbCircle
 10
116.0395751059413
 20
229.1354040703191
 40
5.500000000739999
100
AcDbArc
 50
211.0027191338998
 51
328.9972808661002
  0
ARC
  5
12B
100
AcDbEntity
  8
0
  6
CONTINUOUS
 62
    7
370
   -1
100
AcDbCircle
 10
116.0395751059413
 20
229.1354040703191
 40
5.500000000739999
100
AcDbArc
 50
31.0027191338998
 51
65.85199526287666
  0
ARC
  5
12C
100
AcDbEntity
  8
0
  6
CONTINUOUS
 62
    7
370
   -1
100
AcDbCircle
 10
116.0395751059413
 20
229.1354040703191
 40
5.500000000739999
100
AcDbArc
 50
114.1484116312879
 51
148.9972808661002
  0
ARC
  5
12D
100
AcDbEntity
  8
0
  6
CONTINUOUS
 62
    7
370
   -1
100
AcDbCircle
 10
97.03957510406055
 20
218.635404069599
 40
0.50000000076
100
AcDbArc
 50
180
 51
270
  0
ARC
  5
12E
100
AcDbEntity
  8
0
  6
CONTINUOUS
 62
    7
370
   -1
100
AcDbCircle
 10
100.0395751060805
 20
221.197904070319
 40
1.75000000012
100
AcDbArc
 50
90
 51
270
  0
ARC
  5
12F
100
AcDbEntity
  8
0
  6
CONTINUOUS
 62
    7
370
   -1
100
AcDbCircle
 10
104.0395751045407
 20
221.197904070319
 40
1.75000000012
100
AcDbArc
 50
270
 51
90
  0
ARC
  5
130
100
AcDbEntity
  8
0
  6
CONTINUOUS
 62
    7
370
   -1
100
AcDbCircle
 10
119.039576540521
 20
227.332627995919
 40
1.999996172719999
100
AcDbArc
 50
328.9972704054998
 51
1.25045998813e-005
  0
ARC
  5
131
100
AcDbEntity
  8
0
  6
CONTINUOUS
 62
    7
370
   -1
100
AcDbCircle
 10
113.0395737729614
 20
227.3326280289391
 40
1.999996449579999
100
AcDbArc
 50
179.9999884269998
 51
211.0027288623999
  0
ARC
  5
132
100
AcDbEntity
  8
0
  6
CONTINUOUS
 62
    7
370
   -1
100
AcDbCircle
 10
324.5395751037613
 20
175.1645468918498
 40
0.50000000076
100
AcDbArc
 50
270
 51
0
  0
ARC
  5
133
100
AcDbEntity
  8
0
  6
CONTINUOUS
 62
    7
370
   -1
100
AcDbCircle
 10
325.6395751059408
 20
170.1645468918698
 40
0.59999999888
100
AcDbArc
 50
180
 51
270
  0
CIRCLE
  5
134
100
AcDbEntity
  8
02___PRT_ALL_AXES
  6
CONTINUOUS
 62
    7
370
   -1
100
AcDbCircle
 10
322.239575105421
 20
181.0645468901498
 40
0.69999999954
  0
CIRCLE
  5
135
100
AcDbEntity
  8
0
  6
CONTINUOUS
 62
    7
370
   -1
100
AcDbCircle
 10
322.239575105421
 20
181.0645468901498
 40
0.9999999989799999
  0
CIRCLE
  5
136
100
AcDbEntity
  8
0
  6
CONTINUOUS
 62
    7
370
   -1
100
AcDbCircle
 10
322.239575105421
 20
181.0645468901498
 40
1.499999999739999
  0
ARC
  5
137
100
AcDbEntity
  8
0
  6
CONTINUOUS
 62
    7
370
   -1
100
AcDbCircle
 10
165.4895751059211
 20
190.9645468919898
 40
1.200000000299999
100
AcDbArc
 50
90
 51
149.9999998945999
  0
ARC
  5
138
100
AcDbEntity
  8
0
  6
CONTINUOUS
 62
    7
370
   -1
100
AcDbCircle
 10
165.5895751040407
 20
190.9645468919898
 40
1.200000000299999
100
AcDbArc
 50
30.00000010540012
 51
90
  0
ARC
  5
139
100
AcDbEntity
  8
0
  6
CONTINUOUS
 62
    7
370
   -1
100
AcDbCircle
 10
119.7895751040214
 20
192.8145468902298
 40
1.249999999359999
100
AcDbArc
 50
0
 51
90
  0
ARC
  5
13A
100
AcDbEntity
  8
0
  6
CONTINUOUS
 62
    7
370
   -1
100
AcDbCircle
 10
112.2895751053211
 20
192.8145468902298
 40
1.249999999359999
100
AcDbArc
 50
90
 51
180
  0
ARC
  5
13B
100
AcDbEntity
  8
0
  6
CONTINUOUS
 62
    7
370
   -1
100
AcDbCircle
 10
109.539575105281
 20
175.1645468918498
 40
0.50000000076
100
AcDbArc
 50
180
 51
270
  0
ARC
  5
13C
100
AcDbEntity
  8
0
  6
CONTINUOUS
 62
    7
370
   -1
100
AcDbCircle
 10
108.4395751056408
 20
170.1645468918698
 40
0.59999999888
100
AcDbArc
 50
270
 51
0
  0
CIRCLE
  5
13D
100
AcDbEntity
  8
02___PRT_ALL_AXES
  6
CONTINUOUS
 62
    7
370
   -1
100
AcDbCircle
 10
111.8395751061607
 20
181.0645468901498
 40
0.69999999954
  0
CIRCLE
  5
13E
100
AcDbEntity
  8
0
  6
CONTINUOUS
 62
    7
370
   -1
100
AcDbCircle
 10
111.8395751061607
 20
181.0645468901498
 40
0.9999999989799999
  0
CIRCLE
  5
13F
100
AcDbEntity
  8
0
  6
CONTINUOUS
 62
    7
370
   -1
100
AcDbCircle
 10
111.8395751061607
 20
181.0645468901498
 40
1.499999999739999
  0
ARC
  5
140
100
AcDbEntity
  8
0
  6
CONTINUOUS
 62
    7
370
   -1
100
AcDbCircle
 10
337.0395751049809
 20
130.6871935108774
 40
0.50000000076
100
AcDbArc
 50
0
 51
90
  0
ARC
  5
141
100
AcDbEntity
  8
0
  6
CONTINUOUS
 62
    7
370
   -1
100
AcDbCircle
 10
283.414575105081
 20
128.1871935096176
 40
0.75000000114
100
AcDbArc
 50
0
 51
90
  0
ARC
  5
142
100
AcDbEntity
  8
0
  6
CONTINUOUS
 62
    7
370
   -1
100
AcDbCircle
 10
289.1645751062006
 20
128.1871935096176
 40
0.75000000114
100
AcDbArc
 50
90
 51
180
  0
ARC
  5
143
100
AcDbEntity
  8
0
  6
CONTINUOUS
 62
    7
370
   -1
100
AcDbCircle
 10
301.4145751045007
 20
128.1871935096176
 40
0.75000000114
100
AcDbArc
 50
0
 51
90
  0
ARC
  5
144
100
AcDbEntity
  8
0
  6
CONTINUOUS
 62
    7
370
   -1
100
AcDbCircle
 10
307.1645751056212
 20
128.1871935096176
 40
0.75000000114
100
AcDbArc
 50
90
 51
180
  0
ARC
  5
145
100
AcDbEntity
  8
0
  6
CONTINUOUS
 62
    7
370
   -1
100
AcDbCircle
 10
319.4145751039214
 20
128.1871935096176
 40
0.75000000114
100
AcDbArc
 50
0
 51
90
  0
ARC
  5
146
100
AcDbEntity
  8
0
  6
CONTINUOUS
 62
    7
370
   -1
100
AcDbCircle
 10
279.4003615434813
 20
126.5871935092175
 40
0.9999999989799999
100
AcDbArc
 50
44.99999999999963
 51
90
  0
ARC
  5
147
100
AcDbEntity
  8
0
  6
CONTINUOUS
 62
    7
370
   -1
100
AcDbCircle
 10
297.400361542901
 20
126.5871935092175
 40
0.9999999989799999
100
AcDbArc
 50
44.99999999999963
 51
90
  0
ARC
  5
148
100
AcDbEntity
  8
0
  6
CONTINUOUS
 62
    7
370
   -1
100
AcDbCircle
 10
315.4003615423207
 20
126.5871935092175
 40
0.9999999989799999
100
AcDbArc
 50
44.99999999999963
 51
90
  0
ARC
  5
149
100
AcDbEntity
  8
0
  6
CONTINUOUS
 62
    7
370
   -1
100
AcDbCircle
 10
330.0395751045007
 20
128.1246935101576
 40
1.75000000012
100
AcDbArc
 50
90
 51
270
  0
ARC
  5
14A
100
AcDbEntity
  8
0
  6
CONTINUOUS
 62
    7
370
   -1
100
AcDbCircle
 10
334.0395751055012
 20
128.1246935101576
 40
1.75000000012
100
AcDbArc
 50
270
 51
90
  0
ARC
  5
14B
100
AcDbEntity
  8
0
  6
CONTINUOUS
 62
    7
370
   -1
100
AcDbCircle
 10
291.7645751055807
 20
125.5871935102375
 40
2.0000000005
100
AcDbArc
 50
90
 51
180
  0
ARC
  5
14C
100
AcDbEntity
  8
0
  6
CONTINUOUS
 62
    7
370
   -1
100
AcDbCircle
 10
309.7645751050013
 20
125.5871935102375
 40
2.0000000005
100
AcDbArc
 50
90
 51
180
  0
ARC
  5
14D
100
AcDbEntity
  8
0
  6
CONTINUOUS
 62
    7
370
   -1
100
AcDbCircle
 10
278.6790411979609
 20
125.1871935101376
 40
0.50000000076
100
AcDbArc
 50
44.99999999999963
 51
90
  0
ARC
  5
14E
100
AcDbEntity
  8
0
  6
CONTINUOUS
 62
    7
370
   -1
100
AcDbCircle
 10
280.6145751043814
 20
123.2516596037176
 40
0.50000000076
100
AcDbArc
 50
0
 51
44.99999999999963
  0
ARC
  5
14F
100
AcDbEntity
  8
0
  6
CONTINUOUS
 62
    7
370
   -1
100
AcDbCircle
 10
296.6790411999209
 20
125.1871935101376
 40
0.50000000076
100
AcDbArc
 50
44.99999999999963
 51
90
  0
ARC
  5
150
100
AcDbEntity
  8
0
  6
CONTINUOUS
 62
    7
370
   -1
100
AcDbCircle
 10
298.6145751038011
 20
123.2516596037176
 40
0.50000000076
100
AcDbArc
 50
0
 51
44.99999999999963
  0
ARC
  5
151
100
AcDbEntity
  8
0
  6
CONTINUOUS
 62
    7
370
   -1
100
AcDbCircle
 10
314.6790411993407
 20
125.1871935101376
 40
0.50000000076
100
AcDbArc
 50
44.99999999999963
 51
90
  0
ARC
  5
152
100
AcDbEntity
  8
0
  6
CONTINUOUS
 62
    7
370
   -1
100
AcDbCircle
 10
316.6145751057611
 20
123.2516596037176
 40
0.50000000076
100
AcDbArc
 50
0
 51
44.99999999999963
  0
ARC
  5
153
100
AcDbEntity
  8
0
  6
CONTINUOUS
 62
    7
370
   -1
100
AcDbCircle
 10
281.8145751046813
 20
124.1729799480176
 40
0.9999999989799999
100
AcDbArc
 50
0
 51
44.99999999999963
  0
ARC
  5
154
100
AcDbEntity
  8
0
  6
CONTINUOUS
 62
    7
370
   -1
100
AcDbCircle
 10
299.8145751041011
 20
124.1729799480176
 40
0.9999999989799999
100
AcDbArc
 50
0
 51
44.99999999999963
  0
ARC
  5
155
100
AcDbEntity
  8
0
  6
CONTINUOUS
 62
    7
370
   -1
100
AcDbCircle
 10
317.8145751060611
 20
124.1729799480176
 40
0.9999999989799999
100
AcDbArc
 50
0
 51
44.99999999999963
  0
ARC
  5
156
100
AcDbEntity
  8
0
  6
CONTINUOUS
 62
    7
370
   -1
100
AcDbCircle
 10
292.9645751058815
 20
124.1871935111576
 40
1.499999999739999
100
AcDbArc
 50
90
 51
180
  0
ARC
  5
157
100
AcDbEntity
  8
0
  6
CONTINUOUS
 62
    7
370
   -1
100
AcDbCircle
 10
310.9645751053013
 20
124.1871935111576
 40
1.499999999739999
100
AcDbArc
 50
90
 51
180
  0
ARC
  5
158
100
AcDbEntity
  8
0
  6
CONTINUOUS
 62
    7
370
   -1
100
AcDbCircle
 10
330.0395751045007
 20
120.1871935101576
 40
1.75000000012
100
AcDbArc
 50
90
 51
270
  0
ARC
  5
159
100
AcDbEntity
  8
0
  6
CONTINUOUS
 62
    7
370
   -1
100
AcDbCircle
 10
334.0395751055012
 20
120.1871935101576
 40
1.75000000012
100
AcDbArc
 50
270
 51
90
  0
ARC
  5
15A
100
AcDbEntity
  8
0
  6
CONTINUOUS
 62
    7
370
   -1
100
AcDbCircle
 10
217.1645751059814
 20
128.1871935096176
 40
0.75000000114
100
AcDbArc
 50
90
 51
180
  0
ARC
  5
15B
100
AcDbEntity
  8
0
  6
CONTINUOUS
 62
    7
370
   -1
100
AcDbCircle
 10
229.4145751042806
 20
128.1871935096176
 40
0.75000000114
100
AcDbArc
 50
0
 51
90
  0
ARC
  5
15C
100
AcDbEntity
  8
0
  6
CONTINUOUS
 62
    7
370
   -1
100
AcDbCircle
 10
235.1645751054011
 20
128.1871935096176
 40
0.75000000114
100
AcDbArc
 50
90
 51
180
  0
ARC
  5
15D
100
AcDbEntity
  8
0
  6
CONTINUOUS
 62
    7
370
   -1
100
AcDbCircle
 10
247.4145751037013
 20
128.1871935096176
 40
0.75000000114
100
AcDbArc
 50
0
 51
90
  0
ARC
  5
15E
100
AcDbEntity
  8
0
  6
CONTINUOUS
 62
    7
370
   -1
100
AcDbCircle
 10
253.1645751048209
 20
128.1871935096176
 40
0.75000000114
100
AcDbArc
 50
90
 51
180
  0
ARC
  5
15F
100
AcDbEntity
  8
0
  6
CONTINUOUS
 62
    7
370
   -1
100
AcDbCircle
 10
265.4145751056613
 20
128.1871935096176
 40
0.75000000114
100
AcDbArc
 50
0
 51
90
  0
ARC
  5
160
100
AcDbEntity
  8
0
  6
CONTINUOUS
 62
    7
370
   -1
100
AcDbCircle
 10
271.1645751042415
 20
128.1871935096176
 40
0.75000000114
100
AcDbArc
 50
90
 51
180
  0
ARC
  5
161
100
AcDbEntity
  8
0
  6
CONTINUOUS
 62
    7
370
   -1
100
AcDbCircle
 10
225.4003615426809
 20
126.5871935092175
 40
0.9999999989799999
100
AcDbArc
 50
44.99999999999963
 51
90
  0
ARC
  5
162
100
AcDbEntity
  8
0
  6
CONTINUOUS
 62
    7
370
   -1
100
AcDbCircle
 10
243.4003615421007
 20
126.5871935092175
 40
0.9999999989799999
100
AcDbArc
 50
44.99999999999963
 51
90
  0
ARC
  5
163
100
AcDbEntity
  8
0
  6
CONTINUOUS
 62
    7
370
   -1
100
AcDbCircle
 10
261.4003615415213
 20
126.5871935092175
 40
0.9999999989799999
100
AcDbArc
 50
44.99999999999963
 51
90
  0
ARC
  5
164
100
AcDbEntity
  8
0
  6
CONTINUOUS
 62
    7
370
   -1
100
AcDbCircle
 10
219.7645751053606
 20
125.5871935102375
 40
2.0000000005
100
AcDbArc
 50
90
 51
180
  0
ARC
  5
165
100
AcDbEntity
  8
0
  6
CONTINUOUS
 62
    7
370
   -1
100
AcDbCircle
 10
237.7645751047812
 20
125.5871935102375
 40
2.0000000005
100
AcDbArc
 50
90
 51
180
  0
ARC
  5
166
100
AcDbEntity
  8
0
  6
CONTINUOUS
 62
    7
370
   -1
100
AcDbCircle
 10
255.7645751042009
 20
125.5871935102375
 40
2.0000000005
100
AcDbArc
 50
90
 51
180
  0
ARC
  5
167
100
AcDbEntity
  8
0
  6
CONTINUOUS
 62
    7
370
   -1
100
AcDbCircle
 10
273.7645751061609
 20
125.5871935102375
 40
2.0000000005
100
AcDbArc
 50
90
 51
180
  0
ARC
  5
168
100
AcDbEntity
  8
0
  6
CONTINUOUS
 62
    7
370
   -1
100
AcDbCircle
 10
224.6790411997008
 20
125.1871935101376
 40
0.50000000076
100
AcDbArc
 50
44.99999999999963
 51
90
  0
ARC
  5
169
100
AcDbEntity
  8
0
  6
CONTINUOUS
 62
    7
370
   -1
100
AcDbCircle
 10
226.6145751061213
 20
123.2516596037176
 40
0.50000000076
100
AcDbArc
 50
0
 51
44.99999999999963
  0
ARC
  5
16A
100
AcDbEntity
  8
0
  6
CONTINUOUS
 62
    7
370
   -1
100
AcDbCircle
 10
242.6790411991214
 20
125.1871935101376
 40
0.50000000076
100
AcDbArc
 50
44.99999999999963
 51
90
  0
ARC
  5
16B
100
AcDbEntity
  8
0
  6
CONTINUOUS
 62
    7
370
   -1
100
AcDbCircle
 10
244.614575105541
 20
123.2516596037176
 40
0.50000000076
100
AcDbArc
 50
0
 51
44.99999999999963
  0
ARC
  5
16C
100
AcDbEntity
  8
0
  6
CONTINUOUS
 62
    7
370
   -1
100
AcDbCircle
 10
260.6790411985412
 20
125.1871935101376
 40
0.50000000076
100
AcDbArc
 50
44.99999999999963
 51
90
  0
ARC
  5
16D
100
AcDbEntity
  8
0
  6
CONTINUOUS
 62
    7
370
   -1
100
AcDbCircle
 10
262.6145751049608
 20
123.2516596037176
 40
0.50000000076
100
AcDbArc
 50
0
 51
44.99999999999963
  0
ARC
  5
16E
100
AcDbEntity
  8
0
  6
CONTINUOUS
 62
    7
370
   -1
100
AcDbCircle
 10
227.814575103881
 20
124.1729799480176
 40
0.9999999989799999
100
AcDbArc
 50
0
 51
44.99999999999963
  0
ARC
  5
16F
100
AcDbEntity
  8
0
  6
CONTINUOUS
 62
    7
370
   -1
100
AcDbCircle
 10
245.814575105841
 20
124.1729799480176
 40
0.9999999989799999
100
AcDbArc
 50
0
 51
44.99999999999963
  0
ARC
  5
170
100
AcDbEntity
  8
0
  6
CONTINUOUS
 62
    7
370
   -1
100
AcDbCircle
 10
263.8145751052607
 20
124.1729799480176
 40
0.9999999989799999
100
AcDbArc
 50
0
 51
44.99999999999963
  0
ARC
  5
171
100
AcDbEntity
  8
0
  6
CONTINUOUS
 62
    7
370
   -1
100
AcDbCircle
 10
220.9645751056614
 20
124.1871935111576
 40
1.499999999739999
100
AcDbArc
 50
90
 51
180
  0
ARC
  5
172
100
AcDbEntity
  8
0
  6
CONTINUOUS
 62
    7
370
   -1
100
AcDbCircle
 10
238.9645751050812
 20
124.1871935111576
 40
1.499999999739999
100
AcDbArc
 50
90
 51
180
  0
ARC
  5
173
100
AcDbEntity
  8
0
  6
CONTINUOUS
 62
    7
370
   -1
100
AcDbCircle
 10
256.9645751045009
 20
124.1871935111576
 40
1.499999999739999
100
AcDbArc
 50
90
 51
180
  0
ARC
  5
174
100
AcDbEntity
  8
0
  6
CONTINUOUS
 62
    7
370
   -1
100
AcDbCircle
 10
274.9645751039206
 20
124.1871935111576
 40
1.499999999739999
100
AcDbArc
 50
90
 51
180
  0
ARC
  5
175
100
AcDbEntity
  8
0
  6
CONTINUOUS
 62
    7
370
   -1
100
AcDbCircle
 10
280.6145751043814
 20
117.1227274165976
 40
0.50000000076
100
AcDbArc
 50
315.0000000000003
 51
0
  0
ARC
  5
176
100
AcDbEntity
  8
0
  6
CONTINUOUS
 62
    7
370
   -1
100
AcDbCircle
 10
278.6790411979609
 20
115.1871935101776
 40
0.50000000076
100
AcDbArc
 50
270
 51
315.0000000000003
  0
ARC
  5
177
100
AcDbEntity
  8
0
  6
CONTINUOUS
 62
    7
370
   -1
100
AcDbCircle
 10
298.6145751038011
 20
117.1227274165976
 40
0.50000000076
100
AcDbArc
 50
315.0000000000003
 51
0
  0
ARC
  5
178
100
AcDbEntity
  8
0
  6
CONTINUOUS
 62
    7
370
   -1
100
AcDbCircle
 10
296.6790411999209
 20
115.1871935101776
 40
0.50000000076
100
AcDbArc
 50
270
 51
315.0000000000003
  0
ARC
  5
179
100
AcDbEntity
  8
0
  6
CONTINUOUS
 62
    7
370
   -1
100
AcDbCircle
 10
316.6145751057611
 20
117.1227274165976
 40
0.50000000076
100
AcDbArc
 50
315.0000000000003
 51
0
  0
ARC
  5
17A
100
AcDbEntity
  8
0
  6
CONTINUOUS
 62
    7
370
   -1
100
AcDbCircle
 10
314.6790411993407
 20
115.1871935101776
 40
0.50000000076
100
AcDbArc
 50
270
 51
315.0000000000003
  0
ARC
  5
17B
100
AcDbEntity
  8
0
  6
CONTINUOUS
 62
    7
370
   -1
100
AcDbCircle
 10
279.4003615434813
 20
113.7871935110975
 40
0.9999999989799999
100
AcDbArc
 50
270
 51
315.0000000000003
  0
ARC
  5
17C
100
AcDbEntity
  8
0
  6
CONTINUOUS
 62
    7
370
   -1
100
AcDbCircle
 10
281.8145751046813
 20
116.2014070722976
 40
0.9999999989799999
100
AcDbArc
 50
315.0000000000003
 51
0
  0
ARC
  5
17D
100
AcDbEntity
  8
0
  6
CONTINUOUS
 62
    7
370
   -1
100
AcDbCircle
 10
297.400361542901
 20
113.7871935110975
 40
0.9999999989799999
100
AcDbArc
 50
270
 51
315.0000000000003
  0
ARC
  5
17E
100
AcDbEntity
  8
0
  6
CONTINUOUS
 62
    7
370
   -1
100
AcDbCircle
 10
299.8145751041011
 20
116.2014070722976
 40
0.9999999989799999
100
AcDbArc
 50
315.0000000000003
 51
0
  0
ARC
  5
17F
100
AcDbEntity
  8
0
  6
CONTINUOUS
 62
    7
370
   -1
100
AcDbCircle
 10
315.4003615423207
 20
113.7871935110975
 40
0.9999999989799999
100
AcDbArc
 50
270
 51
315.0000000000003
  0
ARC
  5
180
100
AcDbEntity
  8
0
  6
CONTINUOUS
 62
    7
370
   -1
100
AcDbCircle
 10
317.8145751060611
 20
116.2014070722976
 40
0.9999999989799999
100
AcDbArc
 50
315.0000000000003
 51
0
  0
ARC
  5
181
100
AcDbEntity
  8
0
  6
CONTINUOUS
 62
    7
370
   -1
100
AcDbCircle
 10
292.9645751058815
 20
116.1871935091576
 40
1.499999999739999
100
AcDbArc
 50
180
 51
270
  0
ARC
  5
182
100
AcDbEntity
  8
0
  6
CONTINUOUS
 62
    7
370
   -1
100
AcDbCircle
 10
310.9645751053013
 20
116.1871935091576
 40
1.499999999739999
100
AcDbArc
 50
180
 51
270
  0
ARC
  5
183
100
AcDbEntity
  8
0
  6
CONTINUOUS
 62
    7
370
   -1
100
AcDbCircle
 10
291.7645751055807
 20
114.7871935100775
 40
2.0000000005
100
AcDbArc
 50
180
 51
270
  0
ARC
  5
184
100
AcDbEntity
  8
0
  6
CONTINUOUS
 62
    7
370
   -1
100
AcDbCircle
 10
309.7645751050013
 20
114.7871935100775
 40
2.0000000005
100
AcDbArc
 50
180
 51
270
  0
ARC
  5
185
100
AcDbEntity
  8
0
  6
CONTINUOUS
 62
    7
370
   -1
100
AcDbCircle
 10
337.0395751049809
 20
109.6871935094375
 40
0.50000000076
100
AcDbArc
 50
270
 51
0
  0
ARC
  5
186
100
AcDbEntity
  8
0
  6
CONTINUOUS
 62
    7
370
   -1
100
AcDbCircle
 10
283.414575105081
 20
112.1871935106974
 40
0.75000000114
100
AcDbArc
 50
270
 51
0
  0
ARC
  5
187
100
AcDbEntity
  8
0
  6
CONTINUOUS
 62
    7
370
   -1
100
AcDbCircle
 10
289.1645751062006
 20
112.1871935106974
 40
0.75000000114
100
AcDbArc
 50
180
 51
270
  0
ARC
  5
188
100
AcDbEntity
  8
0
  6
CONTINUOUS
 62
    7
370
   -1
100
AcDbCircle
 10
301.4145751045007
 20
112.1871935106974
 40
0.75000000114
100
AcDbArc
 50
270
 51
0
  0
ARC
  5
189
100
AcDbEntity
  8
0
  6
CONTINUOUS
 62
    7
370
   -1
100
AcDbCircle
 10
307.1645751056212
 20
112.1871935106974
 40
0.75000000114
100
AcDbArc
 50
180
 51
270
  0
ARC
  5
18A
100
AcDbEntity
  8
0
  6
CONTINUOUS
 62
    7
370
   -1
100
AcDbCircle
 10
319.4145751039214
 20
112.1871935106974
 40
0.75000000114
100
AcDbArc
 50
270
 51
0
  0
ARC
  5
18B
100
AcDbEntity
  8
0
  6
CONTINUOUS
 62
    7
370
   -1
100
AcDbCircle
 10
330.0395751045007
 20
112.2496935101576
 40
1.75000000012
100
AcDbArc
 50
90
 51
270
  0
ARC
  5
18C
100
AcDbEntity
  8
0
  6
CONTINUOUS
 62
    7
370
   -1
100
AcDbCircle
 10
334.0395751055012
 20
112.2496935101576
 40
1.75000000012
100
AcDbArc
 50
270
 51
90
  0
ARC
  5
18D
100
AcDbEntity
  8
0
  6
CONTINUOUS
 62
    7
370
   -1
100
AcDbCircle
 10
226.6145751061213
 20
117.1227274165976
 40
0.50000000076
100
AcDbArc
 50
315.0000000000003
 51
0
  0
ARC
  5
18E
100
AcDbEntity
  8
0
  6
CONTINUOUS
 62
    7
370
   -1
100
AcDbCircle
 10
224.6790411997008
 20
115.1871935101776
 40
0.50000000076
100
AcDbArc
 50
270
 51
315.0000000000003
  0
ARC
  5
18F
100
AcDbEntity
  8
0
  6
CONTINUOUS
 62
    7
370
   -1
100
AcDbCircle
 10
244.614575105541
 20
117.1227274165976
 40
0.50000000076
100
AcDbArc
 50
315.0000000000003
 51
0
  0
ARC
  5
190
100
AcDbEntity
  8
0
  6
CONTINUOUS
 62
    7
370
   -1
100
AcDbCircle
 10
242.6790411991214
 20
115.1871935101776
 40
0.50000000076
100
AcDbArc
 50
270
 51
315.0000000000003
  0
ARC
  5
191
100
AcDbEntity
  8
0
  6
CONTINUOUS
 62
    7
370
   -1
100
AcDbCircle
 10
262.6145751049608
 20
117.1227274165976
 40
0.50000000076
100
AcDbArc
 50
315.0000000000003
 51
0
  0
ARC
  5
192
100
AcDbEntity
  8
0
  6
CONTINUOUS
 62
    7
370
   -1
100
AcDbCircle
 10
260.6790411985412
 20
115.1871935101776
 40
0.50000000076
100
AcDbArc
 50
270
 51
315.0000000000003
  0
ARC
  5
193
100
AcDbEntity
  8
0
  6
CONTINUOUS
 62
    7
370
   -1
100
AcDbCircle
 10
225.4003615426809
 20
113.7871935110975
 40
0.9999999989799999
100
AcDbArc
 50
270
 51
315.0000000000003
  0
ARC
  5
194
100
AcDbEntity
  8
0
  6
CONTINUOUS
 62
    7
370
   -1
100
AcDbCircle
 10
227.814575103881
 20
116.2014070722976
 40
0.9999999989799999
100
AcDbArc
 50
315.0000000000003
 51
0
  0
ARC
  5
195
100
AcDbEntity
  8
0
  6
CONTINUOUS
 62
    7
370
   -1
100
AcDbCircle
 10
243.4003615421007
 20
113.7871935110975
 40
0.9999999989799999
100
AcDbArc
 50
270
 51
315.0000000000003
  0
ARC
  5
196
100
AcDbEntity
  8
0
  6
CONTINUOUS
 62
    7
370
   -1
100
AcDbCircle
 10
245.814575105841
 20
116.2014070722976
 40
0.9999999989799999
100
AcDbArc
 50
315.0000000000003
 51
0
  0
ARC
  5
197
100
AcDbEntity
  8
0
  6
CONTINUOUS
 62
    7
370
   -1
100
AcDbCircle
 10
261.4003615415213
 20
113.7871935110975
 40
0.9999999989799999
100
AcDbArc
 50
270
 51
315.0000000000003
  0
ARC
  5
198
100
AcDbEntity
  8
0
  6
CONTINUOUS
 62
    7
370
   -1
100
AcDbCircle
 10
263.8145751052607
 20
116.2014070722976
 40
0.9999999989799999
100
AcDbArc
 50
315.0000000000003
 51
0
  0
ARC
  5
199
100
AcDbEntity
  8
0
  6
CONTINUOUS
 62
    7
370
   -1
100
AcDbCircle
 10
220.9645751056614
 20
116.1871935091576
 40
1.499999999739999
100
AcDbArc
 50
180
 51
270
  0
ARC
  5
19A
100
AcDbEntity
  8
0
  6
CONTINUOUS
 62
    7
370
   -1
100
AcDbCircle
 10
238.9645751050812
 20
116.1871935091576
 40
1.499999999739999
100
AcDbArc
 50
180
 51
270
  0
ARC
  5
19B
100
AcDbEntity
  8
0
  6
CONTINUOUS
 62
    7
370
   -1
100
AcDbCircle
 10
256.9645751045009
 20
116.1871935091576
 40
1.499999999739999
100
AcDbArc
 50
180
 51
270
  0
ARC
  5
19C
100
AcDbEntity
  8
0
  6
CONTINUOUS
 62
    7
370
   -1
100
AcDbCircle
 10
274.9645751039206
 20
116.1871935091576
 40
1.499999999739999
100
AcDbArc
 50
180
 51
270
  0
ARC
  5
19D
100
AcDbEntity
  8
0
  6
CONTINUOUS
 62
    7
370
   -1
100
AcDbCircle
 10
219.7645751053606
 20
114.7871935100775
 40
2.0000000005
100
AcDbArc
 50
180
 51
270
  0
ARC
  5
19E
100
AcDbEntity
  8
0
  6
CONTINUOUS
 62
    7
370
   -1
100
AcDbCircle
 10
237.7645751047812
 20
114.7871935100775
 40
2.0000000005
100
AcDbArc
 50
180
 51
270
  0
ARC
  5
19F
100
AcDbEntity
  8
0
  6
CONTINUOUS
 62
    7
370
   -1
100
AcDbCircle
 10
255.7645751042009
 20
114.7871935100775
 40
2.0000000005
100
AcDbArc
 50
180
 51
270
  0
ARC
  5
1A0
100
AcDbEntity
  8
0
  6
CONTINUOUS
 62
    7
370
   -1
100
AcDbCircle
 10
273.7645751061609
 20
114.7871935100775
 40
2.0000000005
100
AcDbArc
 50
180
 51
270
  0
ARC
  5
1A1
100
AcDbEntity
  8
0
  6
CONTINUOUS
 62
    7
370
   -1
100
AcDbCircle
 10
217.1645751059814
 20
112.1871935106974
 40
0.75000000114
100
AcDbArc
 50
180
 51
270
  0
ARC
  5
1A2
100
AcDbEntity
  8
0
  6
CONTINUOUS
 62
    7
370
   -1
100
AcDbCircle
 10
229.4145751042806
 20
112.1871935106974
 40
0.75000000114
100
AcDbArc
 50
270
 51
0
  0
ARC
  5
1A3
100
AcDbEntity
  8
0
  6
CONTINUOUS
 62
    7
370
   -1
100
AcDbCircle
 10
235.1645751054011
 20
112.1871935106974
 40
0.75000000114
100
AcDbArc
 50
180
 51
270
  0
ARC
  5
1A4
100
AcDbEntity
  8
0
  6
CONTINUOUS
 62
    7
370
   -1
100
AcDbCircle
 10
247.4145751037013
 20
112.1871935106974
 40
0.75000000114
100
AcDbArc
 50
270
 51
0
  0
ARC
  5
1A5
100
AcDbEntity
  8
0
  6
CONTINUOUS
 62
    7
370
   -1
100
AcDbCircle
 10
253.1645751048209
 20
112.1871935106974
 40
0.75000000114
100
AcDbArc
 50
180
 51
270
  0
ARC
  5
1A6
100
AcDbEntity
  8
0
  6
CONTINUOUS
 62
    7
370
   -1
100
AcDbCircle
 10
265.4145751056613
 20
112.1871935106974
 40
0.75000000114
100
AcDbArc
 50
270
 51
0
  0
ARC
  5
1A7
100
AcDbEntity
  8
0
  6
CONTINUOUS
 62
    7
370
   -1
100
AcDbCircle
 10
271.1645751042415
 20
112.1871935106974
 40
0.75000000114
100
AcDbArc
 50
180
 51
270
  0
ARC
  5
1A8
100
AcDbEntity
  8
0
  6
CONTINUOUS
 62
    7
370
   -1
100
AcDbCircle
 10
97.03957510406055
 20
130.6871935108774
 40
0.50000000076
100
AcDbArc
 50
90
 51
180
  0
ARC
  5
1A9
100
AcDbEntity
  8
0
  6
CONTINUOUS
 62
    7
370
   -1
100
AcDbCircle
 10
188.6790411983211
 20
125.1871935101376
 40
0.50000000076
100
AcDbArc
 50
44.99999999999963
 51
90
  0
ARC
  5
1AA
100
AcDbEntity
  8
0
  6
CONTINUOUS
 62
    7
370
   -1
100
AcDbCircle
 10
190.6145751047406
 20
123.2516596037176
 40
0.50000000076
100
AcDbArc
 50
0
 51
44.99999999999963
  0
ARC
  5
1AB
100
AcDbEntity
  8
0
  6
CONTINUOUS
 62
    7
370
   -1
100
AcDbCircle
 10
206.6790411977408
 20
125.1871935101376
 40
0.50000000076
100
AcDbArc
 50
44.99999999999963
 51
90
  0
ARC
  5
1AC
100
AcDbEntity
  8
0
  6
CONTINUOUS
 62
    7
370
   -1
100
AcDbCircle
 10
208.6145751041613
 20
123.2516596037176
 40
0.50000000076
100
AcDbArc
 50
0
 51
44.99999999999963
  0
ARC
  5
1AD
100
AcDbEntity
  8
0
  6
CONTINUOUS
 62
    7
370
   -1
100
AcDbCircle
 10
181.1645751046008
 20
128.1871935096176
 40
0.75000000114
100
AcDbArc
 50
90
 51
180
  0
ARC
  5
1AE
100
AcDbEntity
  8
0
  6
CONTINUOUS
 62
    7
370
   -1
100
AcDbCircle
 10
193.4145751054411
 20
128.1871935096176
 40
0.75000000114
100
AcDbArc
 50
0
 51
90
  0
ARC
  5
1AF
100
AcDbEntity
  8
0
  6
CONTINUOUS
 62
    7
370
   -1
100
AcDbCircle
 10
199.1645751040214
 20
128.1871935096176
 40
0.75000000114
100
AcDbArc
 50
90
 51
180
  0
ARC
  5
1B0
100
AcDbEntity
  8
0
  6
CONTINUOUS
 62
    7
370
   -1
100
AcDbCircle
 10
211.4145751048609
 20
128.1871935096176
 40
0.75000000114
100
AcDbArc
 50
0
 51
90
  0
ARC
  5
1B1
100
AcDbEntity
  8
0
  6
CONTINUOUS
 62
    7
370
   -1
100
AcDbCircle
 10
191.8145751050415
 20
124.1729799480176
 40
0.9999999989799999
100
AcDbArc
 50
0
 51
44.99999999999963
  0
ARC
  5
1B2
100
AcDbEntity
  8
0
  6
CONTINUOUS
 62
    7
370
   -1
100
AcDbCircle
 10
189.4003615413012
 20
126.5871935092175
 40
0.9999999989799999
100
AcDbArc
 50
44.99999999999963
 51
90
  0
ARC
  5
1B3
100
AcDbEntity
  8
0
  6
CONTINUOUS
 62
    7
370
   -1
100
AcDbCircle
 10
209.8145751044612
 20
124.1729799480176
 40
0.9999999989799999
100
AcDbArc
 50
0
 51
44.99999999999963
  0
ARC
  5
1B4
100
AcDbEntity
  8
0
  6
CONTINUOUS
 62
    7
370
   -1
100
AcDbCircle
 10
207.4003615432612
 20
126.5871935092175
 40
0.9999999989799999
100
AcDbArc
 50
44.99999999999963
 51
90
  0
ARC
  5
1B5
100
AcDbEntity
  8
0
  6
CONTINUOUS
 62
    7
370
   -1
100
AcDbCircle
 10
184.9645751042808
 20
124.1871935111576
 40
1.499999999739999
100
AcDbArc
 50
90
 51
180
  0
ARC
  5
1B6
100
AcDbEntity
  8
0
  6
CONTINUOUS
 62
    7
370
   -1
100
AcDbCircle
 10
202.9645751037005
 20
124.1871935111576
 40
1.499999999739999
100
AcDbArc
 50
90
 51
180
  0
ARC
  5
1B7
100
AcDbEntity
  8
0
  6
CONTINUOUS
 62
    7
370
   -1
100
AcDbCircle
 10
104.0395751045407
 20
128.1246935101576
 40
1.75000000012
100
AcDbArc
 50
270
 51
90
  0
ARC
  5
1B8
100
AcDbEntity
  8
0
  6
CONTINUOUS
 62
    7
370
   -1
100
AcDbCircle
 10
100.0395751060805
 20
128.1246935101576
 40
1.75000000012
100
AcDbArc
 50
90
 51
270
  0
ARC
  5
1B9
100
AcDbEntity
  8
0
  6
CONTINUOUS
 62
    7
370
   -1
100
AcDbCircle
 10
104.0395751045407
 20
120.1871935101576
 40
1.75000000012
100
AcDbArc
 50
270
 51
90
  0
ARC
  5
1BA
100
AcDbEntity
  8
0
  6
CONTINUOUS
 62
    7
370
   -1
100
AcDbCircle
 10
100.0395751060805
 20
120.1871935101576
 40
1.75000000012
100
AcDbArc
 50
90
 51
270
  0
CIRCLE
  5
1BB
100
AcDbEntity
  8
0
  6
CONTINUOUS
 62
    7
370
   -1
100
AcDbCircle
 10
135.0395751043406
 20
120.1871935101576
 40
1.874999999039999
  0
ARC
  5
1BC
100
AcDbEntity
  8
0
  6
CONTINUOUS
 62
    7
370
   -1
100
AcDbCircle
 10
183.7645751039808
 20
125.5871935102375
 40
2.0000000005
100
AcDbArc
 50
90
 51
180
  0
ARC
  5
1BD
100
AcDbEntity
  8
0
  6
CONTINUOUS
 62
    7
370
   -1
100
AcDbCircle
 10
201.7645751059408
 20
125.5871935102375
 40
2.0000000005
100
AcDbArc
 50
90
 51
180
  0
ARC
  5
1BE
100
AcDbEntity
  8
0
  6
CONTINUOUS
 62
    7
370
   -1
100
AcDbCircle
 10
135.0395751043406
 20
120.1871935101576
 40
2.749999999099999
100
AcDbArc
 50
294.6199773286996
 51
65.38002267130042
  0
ARC
  5
1BF
100
AcDbEntity
  8
0
  6
CONTINUOUS
 62
    7
370
   -1
100
AcDbCircle
 10
135.0395751043406
 20
120.1871935101576
 40
2.749999999099999
100
AcDbArc
 50
114.6199773286995
 51
245.3800226713004
  0
CIRCLE
  5
1C0
100
AcDbEntity
  8
0
  6
CONTINUOUS
 62
   40
370
   -1
100
AcDbCircle
 10
135.0395751043406
 20
120.1871935101576
 40
3.750000000619999
  0
ARC
  5
1C1
100
AcDbEntity
  8
0
  6
CONTINUOUS
 62
    7
370
   -1
100
AcDbCircle
 10
97.03957510406055
 20
109.6871935094375
 40
0.50000000076
100
AcDbArc
 50
180
 51
270
  0
ARC
  5
1C2
100
AcDbEntity
  8
0
  6
CONTINUOUS
 62
    7
370
   -1
100
AcDbCircle
 10
190.6145751047406
 20
117.1227274165976
 40
0.50000000076
100
AcDbArc
 50
315.0000000000003
 51
0
  0
ARC
  5
1C3
100
AcDbEntity
  8
0
  6
CONTINUOUS
 62
    7
370
   -1
100
AcDbCircle
 10
188.6790411983211
 20
115.1871935101776
 40
0.50000000076
100
AcDbArc
 50
270
 51
315.0000000000003
  0
ARC
  5
1C4
100
AcDbEntity
  8
0
  6
CONTINUOUS
 62
    7
370
   -1
100
AcDbCircle
 10
208.6145751041613
 20
117.1227274165976
 40
0.50000000076
100
AcDbArc
 50
315.0000000000003
 51
0
  0
ARC
  5
1C5
100
AcDbEntity
  8
0
  6
CONTINUOUS
 62
    7
370
   -1
100
AcDbCircle
 10
206.6790411977408
 20
115.1871935101776
 40
0.50000000076
100
AcDbArc
 50
270
 51
315.0000000000003
  0
ARC
  5
1C6
100
AcDbEntity
  8
0
  6
CONTINUOUS
 62
    7
370
   -1
100
AcDbCircle
 10
181.1645751046008
 20
112.1871935106974
 40
0.75000000114
100
AcDbArc
 50
180
 51
270
  0
ARC
  5
1C7
100
AcDbEntity
  8
0
  6
CONTINUOUS
 62
    7
370
   -1
100
AcDbCircle
 10
193.4145751054411
 20
112.1871935106974
 40
0.75000000114
100
AcDbArc
 50
270
 51
0
  0
ARC
  5
1C8
100
AcDbEntity
  8
0
  6
CONTINUOUS
 62
    7
370
   -1
100
AcDbCircle
 10
199.1645751040214
 20
112.1871935106974
 40
0.75000000114
100
AcDbArc
 50
180
 51
270
  0
ARC
  5
1C9
100
AcDbEntity
  8
0
  6
CONTINUOUS
 62
    7
370
   -1
100
AcDbCircle
 10
211.4145751048609
 20
112.1871935106974
 40
0.75000000114
100
AcDbArc
 50
270
 51
0
  0
CIRCLE
  5
1CA
100
AcDbEntity
  8
0
  6
CONTINUOUS
 62
    7
370
   -1
100
AcDbCircle
 10
167.7895751058613
 20
116.4871935111375
 40
0.8499999992599999
  0
CIRCLE
  5
1CB
100
AcDbEntity
  8
0
  6
CONTINUOUS
 62
    7
370
   -1
100
AcDbCircle
 10
140.7895751054611
 20
116.4871935111375
 40
0.8499999992599999
  0
CIRCLE
  5
1CC
100
AcDbEntity
  8
02___PRT_ALL_AXES
  6
CONTINUOUS
 62
    7
370
   -1
100
AcDbCircle
 10
140.7895751054611
 20
116.4871935111375
 40
0.87500000006
  0
CIRCLE
  5
1CD
100
AcDbEntity
  8
02___PRT_ALL_AXES
  6
CONTINUOUS
 62
    7
370
   -1
100
AcDbCircle
 10
167.7895751058613
 20
116.4871935111375
 40
0.87500000006
  0
ARC
  5
1CE
100
AcDbEntity
  8
0
  6
CONTINUOUS
 62
    7
370
   -1
100
AcDbCircle
 10
189.4003615413012
 20
113.7871935110975
 40
0.9999999989799999
100
AcDbArc
 50
270
 51
315.0000000000003
  0
ARC
  5
1CF
100
AcDbEntity
  8
0
  6
CONTINUOUS
 62
    7
370
   -1
100
AcDbCircle
 10
191.8145751050415
 20
116.2014070722976
 40
0.9999999989799999
100
AcDbArc
 50
315.0000000000003
 51
0
  0
ARC
  5
1D0
100
AcDbEntity
  8
0
  6
CONTINUOUS
 62
    7
370
   -1
100
AcDbCircle
 10
207.4003615432612
 20
113.7871935110975
 40
0.9999999989799999
100
AcDbArc
 50
270
 51
315.0000000000003
  0
ARC
  5
1D1
100
AcDbEntity
  8
0
  6
CONTINUOUS
 62
    7
370
   -1
100
AcDbCircle
 10
209.8145751044612
 20
116.2014070722976
 40
0.9999999989799999
100
AcDbArc
 50
315.0000000000003
 51
0
  0
ARC
  5
1D2
100
AcDbEntity
  8
0
  6
CONTINUOUS
 62
    7
370
   -1
100
AcDbCircle
 10
184.9645751042808
 20
116.1871935091576
 40
1.499999999739999
100
AcDbArc
 50
180
 51
270
  0
ARC
  5
1D3
100
AcDbEntity
  8
0
  6
CONTINUOUS
 62
    7
370
   -1
100
AcDbCircle
 10
202.9645751037005
 20
116.1871935091576
 40
1.499999999739999
100
AcDbArc
 50
180
 51
270
  0
ARC
  5
1D4
100
AcDbEntity
  8
0
  6
CONTINUOUS
 62
    7
370
   -1
100
AcDbCircle
 10
104.0395751045407
 20
112.2496935101576
 40
1.75000000012
100
AcDbArc
 50
270
 51
90
  0
ARC
  5
1D5
100
AcDbEntity
  8
0
  6
CONTINUOUS
 62
    7
370
   -1
100
AcDbCircle
 10
100.0395751060805
 20
112.2496935101576
 40
1.75000000012
100
AcDbArc
 50
90
 51
270
  0
ARC
  5
1D6
100
AcDbEntity
  8
0
  6
CONTINUOUS
 62
    7
370
   -1
100
AcDbCircle
 10
183.7645751039808
 20
114.7871935100775
 40
2.0000000005
100
AcDbArc
 50
180
 51
270
  0
ARC
  5
1D7
100
AcDbEntity
  8
0
  6
CONTINUOUS
 62
    7
370
   -1
100
AcDbCircle
 10
201.7645751059408
 20
114.7871935100775
 40
2.0000000005
100
AcDbArc
 50
180
 51
270
  0
LINE
  5
1D8
100
AcDbEntity
  8
0
  6
CONTINUOUS
 62
    7
370
   -1
100
AcDbLine
 10
337.5895751057415
 20
239.6354040710392
 11
337.5895751057415
 21
218.635404069599
  0
LINE
  5
1D9
100
AcDbEntity
  8
0
  6
CONTINUOUS
 62
    7
370
   -1
100
AcDbLine
 10
326.0895751060416
 20
240.1354040692591
 11
326.0895751060416
 21
218.1354040688391
  0
LINE
  5
1DA
100
AcDbEntity
  8
0
  6
CONTINUOUS
 62
    7
370
   -1
100
AcDbLine
 10
325.0895751045209
 20
218.1354040688391
 11
325.0895751045209
 21
240.1354040692591
  0
LINE
  5
1DB
100
AcDbEntity
  8
0
  6
CONTINUOUS
 62
    7
370
   -1
100
AcDbLine
 10
97.03957510406055
 20
240.1354040692591
 11
113.7895290068518
 21
240.1354040692591
  0
LINE
  5
1DC
100
AcDbEntity
  8
0
  6
CONTINUOUS
 62
    7
370
   -1
100
AcDbLine
 10
325.0895751045209
 20
239.6354040710392
 11
326.0895751060416
 21
239.6354040710392
  0
LINE
  5
1DD
100
AcDbEntity
  8
0
  6
CONTINUOUS
 62
    7
370
   -1
100
AcDbLine
 10
108.0395751055412
 20
239.6354040710392
 11
109.0395751045207
 21
239.6354040710392
  0
LINE
  5
1DE
100
AcDbEntity
  8
0
  6
CONTINUOUS
 62
    7
370
   -1
100
AcDbLine
 10
330.0895751045009
 20
238.8229040704391
 11
334.0895751055013
 21
238.8229040704391
  0
LINE
  5
1DF
100
AcDbEntity
  8
0
  6
CONTINUOUS
 62
    7
370
   -1
100
AcDbLine
 10
100.0395751060805
 20
238.8229040704391
 11
104.0395751045407
 21
238.8229040704391
  0
LINE
  5
1E0
100
AcDbEntity
  8
0
  6
CONTINUOUS
 62
    7
370
   -1
100
AcDbLine
 10
104.0395751045407
 20
235.322904070199
 11
100.0395751060805
 21
235.322904070199
  0
LINE
  5
1E1
100
AcDbEntity
  8
0
  6
CONTINUOUS
 62
    7
370
   -1
100
AcDbLine
 10
334.0895751055013
 20
235.322904070199
 11
330.0895751045009
 21
235.322904070199
  0
LINE
  5
1E2
100
AcDbEntity
  8
0
  6
CONTINUOUS
 62
    7
370
   -1
100
AcDbLine
 10
325.0895751045209
 20
232.6354040705589
 11
326.0895751060416
 21
232.6354040705589
  0
LINE
  5
1E3
100
AcDbEntity
  8
0
  6
CONTINUOUS
 62
    7
370
   -1
100
AcDbLine
 10
108.0395751055412
 20
232.6354040705589
 11
109.0395751045207
 21
232.6354040705589
  0
LINE
  5
1E4
100
AcDbEntity
  8
0
  6
CONTINUOUS
 62
    7
370
   -1
100
AcDbLine
 10
325.0895751045209
 20
232.1354040697991
 11
326.0895751060416
 21
232.1354040697991
  0
LINE
  5
1E5
100
AcDbEntity
  8
0
  6
CONTINUOUS
 62
    7
370
   -1
100
AcDbLine
 10
108.0395751055412
 20
232.1354040697991
 11
109.0395751045207
 21
232.1354040697991
  0
LINE
  5
1E6
100
AcDbEntity
  8
0
  6
CONTINUOUS
 62
    7
370
   -1
100
AcDbLine
 10
330.0895751045009
 20
230.8854040704391
 11
334.0895751055013
 21
230.8854040704391
  0
LINE
  5
1E7
100
AcDbEntity
  8
0
  6
CONTINUOUS
 62
    7
370
   -1
100
AcDbLine
 10
100.0395751060805
 20
230.8854040704391
 11
104.0395751045407
 21
230.8854040704391
  0
LINE
  5
1E8
100
AcDbEntity
  8
0
  6
CONTINUOUS
 62
    7
370
   -1
100
AcDbLine
 10
104.0395751045407
 20
227.385404070199
 11
100.0395751060805
 21
227.385404070199
  0
LINE
  5
1E9
100
AcDbEntity
  8
0
  6
CONTINUOUS
 62
    7
370
   -1
100
AcDbLine
 10
334.0895751055013
 20
227.385404070199
 11
330.0895751045009
 21
227.385404070199
  0
LINE
  5
1EA
100
AcDbEntity
  8
0
  6
CONTINUOUS
 62
    7
370
   -1
100
AcDbLine
 10
109.0395751045207
 20
226.1354040708391
 11
108.0395751055412
 21
226.1354040708391
  0
LINE
  5
1EB
100
AcDbEntity
  8
0
  6
CONTINUOUS
 62
    7
370
   -1
100
AcDbLine
 10
326.0895751060416
 20
226.1354040708391
 11
325.0895751045209
 21
226.1354040708391
  0
LINE
  5
1EC
100
AcDbEntity
  8
0
  6
CONTINUOUS
 62
    7
370
   -1
100
AcDbLine
 10
109.0395751045207
 20
225.6354040700791
 11
108.0395751055412
 21
225.6354040700791
  0
LINE
  5
1ED
100
AcDbEntity
  8
0
  6
CONTINUOUS
 62
    7
370
   -1
100
AcDbLine
 10
326.0895751060416
 20
225.6354040700791
 11
325.0895751045209
 21
225.6354040700791
  0
LINE
  5
1EE
100
AcDbEntity
  8
0
  6
CONTINUOUS
 62
    7
370
   -1
100
AcDbLine
 10
330.0895751045009
 20
222.9479040704391
 11
334.0895751055013
 21
222.9479040704391
  0
LINE
  5
1EF
100
AcDbEntity
  8
0
  6
CONTINUOUS
 62
    7
370
   -1
100
AcDbLine
 10
100.0395751060805
 20
222.9479040704391
 11
104.0395751045407
 21
222.9479040704391
  0
LINE
  5
1F0
100
AcDbEntity
  8
0
  6
CONTINUOUS
 62
    7
370
   -1
100
AcDbLine
 10
104.0395751045407
 20
219.447904070199
 11
100.0395751060805
 21
219.447904070199
  0
LINE
  5
1F1
100
AcDbEntity
  8
0
  6
CONTINUOUS
 62
    7
370
   -1
100
AcDbLine
 10
334.0895751055013
 20
219.447904070199
 11
330.0895751045009
 21
219.447904070199
  0
LINE
  5
1F2
100
AcDbEntity
  8
0
  6
CONTINUOUS
 62
    7
370
   -1
100
AcDbLine
 10
326.0895751060416
 20
218.635404069599
 11
108.0395751055412
 21
218.635404069599
  0
LINE
  5
1F3
100
AcDbEntity
  8
0
  6
CONTINUOUS
 62
    7
370
   -1
100
AcDbLine
 10
97.03957510406055
 20
218.1354040688391
 11
337.0895751049811
 21
218.1354040688391
  0
LINE
  5
1F4
100
AcDbEntity
  8
0
  6
CONTINUOUS
 62
    7
370
   -1
100
AcDbLine
 10
121.0395751059213
 20
227.3326284327991
 11
121.0395751059213
 21
230.938179707839
  0
LINE
  5
1F5
100
AcDbEntity
  8
0
  6
CONTINUOUS
 62
    7
370
   -1
100
AcDbLine
 10
119.7895751040214
 20
227.1354040698191
 11
119.7895751040214
 21
231.1354040708191
  0
LINE
  5
1F6
100
AcDbEntity
  8
0
  6
CONTINUOUS
 62
    7
370
   -1
100
AcDbLine
 10
112.2895751053211
 20
231.1354040708191
 11
112.2895751053211
 21
227.1354040698191
  0
LINE
  5
1F7
100
AcDbEntity
  8
0
  6
CONTINUOUS
 62
    7
370
   -1
100
AcDbLine
 10
111.0395751059614
 20
230.938179707839
 11
111.0395751059614
 21
227.3326284327991
  0
LINE
  5
1F8
100
AcDbEntity
  8
0
  6
CONTINUOUS
 62
    7
370
   -1
100
AcDbLine
 10
109.0395751045207
 20
240.1354040692591
 11
109.0395751045207
 21
218.1354040688391
  0
LINE
  5
1F9
100
AcDbEntity
  8
0
  6
CONTINUOUS
 62
    7
370
   -1
100
AcDbLine
 10
108.0395751055412
 20
218.1354040688391
 11
108.0395751055412
 21
240.1354040692591
  0
LINE
  5
1FA
100
AcDbEntity
  8
0
  6
CONTINUOUS
 62
    7
370
   -1
100
AcDbLine
 10
96.53957510584134
 20
218.635404069599
 11
96.53957510584134
 21
239.6354040710392
  0
LINE
  5
1FB
100
AcDbEntity
  8
0
  6
CONTINUOUS
 62
    7
370
   -1
100
AcDbLine
 10
337.5395751057413
 20
169.5645468904497
 11
337.5395751057413
 21
170.5645468919697
  0
LINE
  5
1FC
100
AcDbEntity
  8
0
  6
CONTINUOUS
 62
    7
370
   -1
100
AcDbLine
 10
337.0395751049809
 20
169.5645468904497
 11
337.0395751049809
 21
170.5645468919697
  0
LINE
  5
1FD
100
AcDbEntity
  8
0
  6
CONTINUOUS
 62
    7
370
   -1
100
AcDbLine
 10
326.0395751060414
 20
170.5645468919697
 11
326.0395751060414
 21
191.5645468908697
  0
LINE
  5
1FE
100
AcDbEntity
  8
0
  6
CONTINUOUS
 62
    7
370
   -1
100
AcDbLine
 10
325.0395751045207
 20
191.5645468908697
 11
325.0395751045207
 21
169.5645468904497
  0
LINE
  5
1FF
100
AcDbEntity
  8
0
  6
CONTINUOUS
 62
    7
370
   -1
100
AcDbLine
 10
324.8895751048012
 20
174.5645468904297
 11
324.8895751048012
 21
174.0645468896698
  0
LINE
  5
200
100
AcDbEntity
  8
0
  6
CONTINUOUS
 62
    7
370
   -1
100
AcDbLine
 10
324.5395751037613
 20
174.0645468896698
 11
324.5395751037613
 21
174.6645468910896
  0
LINE
  5
201
100
AcDbEntity
  8
0
  6
CONTINUOUS
 62
    7
370
   -1
100
AcDbLine
 10
324.3895751040409
 20
174.6645468910896
 11
324.3895751040409
 21
174.0645468896698
  0
LINE
  5
202
100
AcDbEntity
  8
0
  6
CONTINUOUS
 62
    7
370
   -1
100
AcDbLine
 10
320.164575105061
 20
167.9645468900498
 11
320.164575105061
 21
169.5645468904497
  0
LINE
  5
203
100
AcDbEntity
  8
0
  6
CONTINUOUS
 62
    7
370
   -1
100
AcDbLine
 10
319.4145751039214
 20
167.9645468900498
 11
319.4145751039214
 21
169.5645468904497
  0
LINE
  5
204
100
AcDbEntity
  8
0
  6
CONTINUOUS
 62
    7
370
   -1
100
AcDbLine
 10
307.1645751056212
 20
167.9645468900498
 11
307.1645751056212
 21
169.5645468904497
  0
LINE
  5
205
100
AcDbEntity
  8
0
  6
CONTINUOUS
 62
    7
370
   -1
100
AcDbLine
 10
306.4145751044807
 20
167.9645468900498
 11
306.4145751044807
 21
169.5645468904497
  0
LINE
  5
206
100
AcDbEntity
  8
0
  6
CONTINUOUS
 62
    7
370
   -1
100
AcDbLine
 10
302.1645751056412
 20
167.9645468900498
 11
302.1645751056412
 21
169.5645468904497
  0
LINE
  5
207
100
AcDbEntity
  8
0
  6
CONTINUOUS
 62
    7
370
   -1
100
AcDbLine
 10
301.4145751045007
 20
167.9645468900498
 11
301.4145751045007
 21
169.5645468904497
  0
LINE
  5
208
100
AcDbEntity
  8
0
  6
CONTINUOUS
 62
    7
370
   -1
100
AcDbLine
 10
299.3395751041408
 20
174.0645468896698
 11
299.3395751041408
 21
174.6645468910896
  0
LINE
  5
209
100
AcDbEntity
  8
0
  6
CONTINUOUS
 62
    7
370
   -1
100
AcDbLine
 10
298.8395751059215
 20
174.5645468904297
 11
298.8395751059215
 21
174.0645468896698
  0
LINE
  5
20A
100
AcDbEntity
  8
0
  6
CONTINUOUS
 62
    7
370
   -1
100
AcDbLine
 10
298.5395751039414
 20
174.5645468904297
 11
298.5395751039414
 21
174.6645468910896
  0
LINE
  5
20B
100
AcDbEntity
  8
0
  6
CONTINUOUS
 62
    7
370
   -1
100
AcDbLine
 10
294.8395751049211
 20
174.6645468910896
 11
294.8395751049211
 21
175.1645468918498
  0
LINE
  5
20C
100
AcDbEntity
  8
0
  6
CONTINUOUS
 62
    7
370
   -1
100
AcDbLine
 10
294.3395751041608
 20
175.1645468918498
 11
294.3395751041608
 21
174.5645468904297
  0
LINE
  5
20D
100
AcDbEntity
  8
0
  6
CONTINUOUS
 62
    7
370
   -1
100
AcDbLine
 10
289.1645751062006
 20
167.9645468900498
 11
289.1645751062006
 21
169.5645468904497
  0
LINE
  5
20E
100
AcDbEntity
  8
0
  6
CONTINUOUS
 62
    7
370
   -1
100
AcDbLine
 10
288.414575105061
 20
167.9645468900498
 11
288.414575105061
 21
169.5645468904497
  0
LINE
  5
20F
100
AcDbEntity
  8
0
  6
CONTINUOUS
 62
    7
370
   -1
100
AcDbLine
 10
284.1645751036813
 20
167.9645468900498
 11
284.1645751036813
 21
169.5645468904497
  0
LINE
  5
210
100
AcDbEntity
  8
0
  6
CONTINUOUS
 62
    7
370
   -1
100
AcDbLine
 10
283.414575105081
 20
167.9645468900498
 11
283.414575105081
 21
169.5645468904497
  0
LINE
  5
211
100
AcDbEntity
  8
0
  6
CONTINUOUS
 62
    7
370
   -1
100
AcDbLine
 10
271.1645751042415
 20
167.9645468900498
 11
271.1645751042415
 21
169.5645468904497
  0
LINE
  5
212
100
AcDbEntity
  8
0
  6
CONTINUOUS
 62
    7
370
   -1
100
AcDbLine
 10
270.4145751056412
 20
167.9645468900498
 11
270.4145751056412
 21
169.5645468904497
  0
LINE
  5
213
100
AcDbEntity
  8
0
  6
CONTINUOUS
 62
    7
370
   -1
100
AcDbLine
 10
266.1645751042606
 20
167.9645468900498
 11
266.1645751042606
 21
169.5645468904497
  0
LINE
  5
214
100
AcDbEntity
  8
0
  6
CONTINUOUS
 62
    7
370
   -1
100
AcDbLine
 10
265.4145751056613
 20
167.9645468900498
 11
265.4145751056613
 21
169.5645468904497
  0
LINE
  5
215
100
AcDbEntity
  8
0
  6
CONTINUOUS
 62
    7
370
   -1
100
AcDbLine
 10
253.1645751048209
 20
167.9645468900498
 11
253.1645751048209
 21
169.5645468904497
  0
LINE
  5
216
100
AcDbEntity
  8
0
  6
CONTINUOUS
 62
    7
370
   -1
100
AcDbLine
 10
252.4145751036813
 20
167.9645468900498
 11
252.4145751036813
 21
169.5645468904497
  0
LINE
  5
217
100
AcDbEntity
  8
0
  6
CONTINUOUS
 62
    7
370
   -1
100
AcDbLine
 10
248.1645751048409
 20
167.9645468900498
 11
248.1645751048409
 21
169.5645468904497
  0
LINE
  5
218
100
AcDbEntity
  8
0
  6
CONTINUOUS
 62
    7
370
   -1
100
AcDbLine
 10
247.4145751037013
 20
167.9645468900498
 11
247.4145751037013
 21
169.5645468904497
  0
LINE
  5
219
100
AcDbEntity
  8
0
  6
CONTINUOUS
 62
    7
370
   -1
100
AcDbLine
 10
237.0395751044407
 20
174.5645468904297
 11
237.0395751044407
 21
175.1645468918498
  0
LINE
  5
21A
100
AcDbEntity
  8
0
  6
CONTINUOUS
 62
    7
370
   -1
100
AcDbLine
 10
236.5395751036813
 20
174.6645468910896
 11
236.5395751036813
 21
175.1645468918498
  0
LINE
  5
21B
100
AcDbEntity
  8
0
  6
CONTINUOUS
 62
    7
370
   -1
100
AcDbLine
 10
235.1645751054011
 20
167.9645468900498
 11
235.1645751054011
 21
169.5645468904497
  0
LINE
  5
21C
100
AcDbEntity
  8
0
  6
CONTINUOUS
 62
    7
370
   -1
100
AcDbLine
 10
235.0395751039414
 20
174.6645468910896
 11
235.0395751039414
 21
174.5645468904297
  0
LINE
  5
21D
100
AcDbEntity
  8
0
  6
CONTINUOUS
 62
    7
370
   -1
100
AcDbLine
 10
234.4145751042606
 20
167.9645468900498
 11
234.4145751042606
 21
169.5645468904497
  0
LINE
  5
21E
100
AcDbEntity
  8
0
  6
CONTINUOUS
 62
    7
370
   -1
100
AcDbLine
 10
119.7895751040214
 20
194.0645468921298
 11
112.2895751053211
 21
194.0645468921298
  0
LINE
  5
21F
100
AcDbEntity
  8
0
  6
CONTINUOUS
 62
    7
370
   -1
100
AcDbLine
 10
111.0395751059614
 20
192.8145468902298
 11
121.0395751059213
 21
192.8145468902298
  0
LINE
  5
220
100
AcDbEntity
  8
0
  6
CONTINUOUS
 62
    7
370
   -1
100
AcDbLine
 10
165.4895751059211
 20
192.1645468897498
 11
165.5895751040407
 21
192.1645468897498
  0
LINE
  5
221
100
AcDbEntity
  8
0
  6
CONTINUOUS
 62
    7
370
   -1
100
AcDbLine
 10
326.0395751060414
 20
191.5645468908697
 11
108.0395751055412
 21
191.5645468908697
  0
LINE
  5
222
100
AcDbEntity
  8
0
  6
CONTINUOUS
 62
    7
370
   -1
100
AcDbLine
 10
326.0395751060414
 20
191.0645468901098
 11
108.0395751055412
 21
191.0645468901098
  0
LINE
  5
223
100
AcDbEntity
  8
0
  6
CONTINUOUS
 62
    7
370
   -1
100
AcDbLine
 10
232.539575105221
 20
174.5645468904297
 11
232.539575105221
 21
174.0645468896698
  0
LINE
  5
224
100
AcDbEntity
  8
0
  6
CONTINUOUS
 62
    7
370
   -1
100
AcDbLine
 10
232.0395751044607
 20
174.6645468910896
 11
232.0395751044607
 21
174.0645468896698
  0
LINE
  5
225
100
AcDbEntity
  8
0
  6
CONTINUOUS
 62
    7
370
   -1
100
AcDbLine
 10
230.1645751054211
 20
167.9645468900498
 11
230.1645751054211
 21
169.5645468904497
  0
LINE
  5
226
100
AcDbEntity
  8
0
  6
CONTINUOUS
 62
    7
370
   -1
100
AcDbLine
 10
229.4145751042806
 20
167.9645468900498
 11
229.4145751042806
 21
169.5645468904497
  0
LINE
  5
227
100
AcDbEntity
  8
0
  6
CONTINUOUS
 62
    7
370
   -1
100
AcDbLine
 10
294.8395751049211
 20
175.1645468918498
 11
294.3395751041608
 21
175.1895468901098
  0
LINE
  5
228
100
AcDbEntity
  8
0
  6
CONTINUOUS
 62
    7
370
   -1
100
AcDbLine
 10
197.5395751053611
 20
175.1645468918498
 11
197.0395751046007
 21
175.1895468901098
  0
LINE
  5
229
100
AcDbEntity
  8
0
  6
CONTINUOUS
 62
    7
370
   -1
100
AcDbLine
 10
197.0395751046007
 20
175.1895468901098
 11
139.7395751048807
 21
175.1895468901098
  0
LINE
  5
22A
100
AcDbEntity
  8
0
  6
CONTINUOUS
 62
    7
370
   -1
100
AcDbLine
 10
294.3395751041608
 20
175.1895468901098
 11
237.0395751044407
 21
175.1895468901098
  0
LINE
  5
22B
100
AcDbEntity
  8
0
  6
CONTINUOUS
 62
    7
370
   -1
100
AcDbLine
 10
294.8395751049211
 20
174.6645468910896
 11
324.5395751037613
 21
174.6645468910896
  0
LINE
  5
22C
100
AcDbEntity
  8
0
  6
CONTINUOUS
 62
    7
370
   -1
100
AcDbLine
 10
197.5395751053611
 20
174.6645468910896
 11
236.5395751036813
 21
174.6645468910896
  0
LINE
  5
22D
100
AcDbEntity
  8
0
  6
CONTINUOUS
 62
    7
370
   -1
100
AcDbLine
 10
109.539575105281
 20
174.6645468910896
 11
139.2395751041213
 21
174.6645468910896
  0
LINE
  5
22E
100
AcDbEntity
  8
0
  6
CONTINUOUS
 62
    7
370
   -1
100
AcDbLine
 10
197.0395751046007
 20
174.6645468910896
 11
139.7395751048807
 21
174.6645468910896
  0
LINE
  5
22F
100
AcDbEntity
  8
0
  6
CONTINUOUS
 62
    7
370
   -1
100
AcDbLine
 10
294.3395751041608
 20
174.6645468910896
 11
237.0395751044407
 21
174.6645468910896
  0
LINE
  5
230
100
AcDbEntity
  8
0
  6
CONTINUOUS
 62
    7
370
   -1
100
AcDbLine
 10
324.8895751048012
 20
174.5645468904297
 11
325.0395751045207
 21
174.5645468904297
  0
LINE
  5
231
100
AcDbEntity
  8
0
  6
CONTINUOUS
 62
    7
370
   -1
100
AcDbLine
 10
232.539575105221
 20
174.5645468904297
 11
298.8395751059215
 21
174.5645468904297
  0
LINE
  5
232
100
AcDbEntity
  8
0
  6
CONTINUOUS
 62
    7
370
   -1
100
AcDbLine
 10
135.239575105661
 20
174.5645468904297
 11
201.5395751038213
 21
174.5645468904297
  0
LINE
  5
233
100
AcDbEntity
  8
0
  6
CONTINUOUS
 62
    7
370
   -1
100
AcDbLine
 10
109.0395751045207
 20
174.5645468904297
 11
109.1895751042411
 21
174.5645468904297
  0
LINE
  5
234
100
AcDbEntity
  8
0
  6
CONTINUOUS
 62
    7
370
   -1
100
AcDbLine
 10
134.7395751049007
 20
174.5645468904297
 11
109.6895751050006
 21
174.5645468904297
  0
LINE
  5
235
100
AcDbEntity
  8
0
  6
CONTINUOUS
 62
    7
370
   -1
100
AcDbLine
 10
232.0395751044607
 20
174.5645468904297
 11
202.0395751045807
 21
174.5645468904297
  0
LINE
  5
236
100
AcDbEntity
  8
0
  6
CONTINUOUS
 62
    7
370
   -1
100
AcDbLine
 10
324.3895751040409
 20
174.5645468904297
 11
299.3395751041408
 21
174.5645468904297
  0
LINE
  5
237
100
AcDbEntity
  8
0
  6
CONTINUOUS
 62
    7
370
   -1
100
AcDbLine
 10
109.539575105281
 20
174.1145468912698
 11
109.6895751050006
 21
174.1145468912698
  0
LINE
  5
238
100
AcDbEntity
  8
0
  6
CONTINUOUS
 62
    7
370
   -1
100
AcDbLine
 10
324.5395751037613
 20
174.1145468912698
 11
324.3895751040409
 21
174.1145468912698
  0
LINE
  5
239
100
AcDbEntity
  8
0
  6
CONTINUOUS
 62
    7
370
   -1
100
AcDbLine
 10
298.8395751059215
 20
174.0645468896698
 11
324.8895751048012
 21
174.0645468896698
  0
LINE
  5
23A
100
AcDbEntity
  8
0
  6
CONTINUOUS
 62
    7
370
   -1
100
AcDbLine
 10
201.5395751038213
 20
174.0645468896698
 11
232.539575105221
 21
174.0645468896698
  0
LINE
  5
23B
100
AcDbEntity
  8
0
  6
CONTINUOUS
 62
    7
370
   -1
100
AcDbLine
 10
109.1895751042411
 20
174.0645468896698
 11
135.239575105661
 21
174.0645468896698
  0
LINE
  5
23C
100
AcDbEntity
  8
0
  6
CONTINUOUS
 62
    7
370
   -1
100
AcDbLine
 10
139.7395751048807
 20
175.1895468901098
 11
139.2395751041213
 21
175.1645468918498
  0
LINE
  5
23D
100
AcDbEntity
  8
0
  6
CONTINUOUS
 62
    7
370
   -1
100
AcDbLine
 10
237.0395751044407
 20
175.1895468901098
 11
236.5395751036813
 21
175.1645468918498
  0
LINE
  5
23E
100
AcDbEntity
  8
0
  6
CONTINUOUS
 62
    7
370
   -1
100
AcDbLine
 10
217.1645751059814
 20
167.9645468900498
 11
217.1645751059814
 21
169.5645468904497
  0
LINE
  5
23F
100
AcDbEntity
  8
0
  6
CONTINUOUS
 62
    7
370
   -1
100
AcDbLine
 10
216.4145751048409
 20
167.9645468900498
 11
216.4145751048409
 21
169.5645468904497
  0
LINE
  5
240
100
AcDbEntity
  8
0
  6
CONTINUOUS
 62
    7
370
   -1
100
AcDbLine
 10
212.1645751060014
 20
167.9645468900498
 11
212.1645751060014
 21
169.5645468904497
  0
LINE
  5
241
100
AcDbEntity
  8
0
  6
CONTINUOUS
 62
    7
370
   -1
100
AcDbLine
 10
211.4145751048609
 20
167.9645468900498
 11
211.4145751048609
 21
169.5645468904497
  0
LINE
  5
242
100
AcDbEntity
  8
0
  6
CONTINUOUS
 62
    7
370
   -1
100
AcDbLine
 10
326.0395751060414
 20
170.5645468919697
 11
337.5395751057413
 21
170.5645468919697
  0
LINE
  5
243
100
AcDbEntity
  8
0
  6
CONTINUOUS
 62
    7
370
   -1
100
AcDbLine
 10
96.53957510584134
 20
170.5645468919697
 11
108.0395751055412
 21
170.5645468919697
  0
LINE
  5
244
100
AcDbEntity
  8
0
  6
CONTINUOUS
 62
    7
370
   -1
100
AcDbLine
 10
325.0395751045207
 20
170.0645468912098
 11
109.0395751045207
 21
170.0645468912098
  0
LINE
  5
245
100
AcDbEntity
  8
0
  6
CONTINUOUS
 62
    7
370
   -1
100
AcDbLine
 10
325.6395751059408
 20
169.5645468904497
 11
337.5395751057413
 21
169.5645468904497
  0
LINE
  5
246
100
AcDbEntity
  8
0
  6
CONTINUOUS
 62
    7
370
   -1
100
AcDbLine
 10
108.4395751056408
 20
169.5645468904497
 11
96.53957510584134
 21
169.5645468904497
  0
LINE
  5
247
100
AcDbEntity
  8
0
  6
CONTINUOUS
 62
    7
370
   -1
100
AcDbLine
 10
325.0395751045207
 20
169.5645468904497
 11
109.0395751045207
 21
169.5645468904497
  0
LINE
  5
248
100
AcDbEntity
  8
0
  6
CONTINUOUS
 62
   40
370
   -1
100
AcDbLine
 10
138.7895751049609
 20
169.3145468900697
 11
131.2895751037213
 21
169.3145468900697
  0
LINE
  5
249
100
AcDbEntity
  8
0
  6
CONTINUOUS
 62
    7
370
   -1
100
AcDbLine
 10
194.1645751040414
 20
167.9645468900498
 11
180.4145751060014
 21
167.9645468900498
  0
LINE
  5
24A
100
AcDbEntity
  8
0
  6
CONTINUOUS
 62
    7
370
   -1
100
AcDbLine
 10
212.1645751060014
 20
167.9645468900498
 11
198.4145751054211
 21
167.9645468900498
  0
LINE
  5
24B
100
AcDbEntity
  8
0
  6
CONTINUOUS
 62
    7
370
   -1
100
AcDbLine
 10
230.1645751054211
 20
167.9645468900498
 11
216.4145751048409
 21
167.9645468900498
  0
LINE
  5
24C
100
AcDbEntity
  8
0
  6
CONTINUOUS
 62
    7
370
   -1
100
AcDbLine
 10
248.1645751048409
 20
167.9645468900498
 11
234.4145751042606
 21
167.9645468900498
  0
LINE
  5
24D
100
AcDbEntity
  8
0
  6
CONTINUOUS
 62
    7
370
   -1
100
AcDbLine
 10
266.1645751042606
 20
167.9645468900498
 11
252.4145751036813
 21
167.9645468900498
  0
LINE
  5
24E
100
AcDbEntity
  8
0
  6
CONTINUOUS
 62
    7
370
   -1
100
AcDbLine
 10
284.1645751036813
 20
167.9645468900498
 11
270.4145751056412
 21
167.9645468900498
  0
LINE
  5
24F
100
AcDbEntity
  8
0
  6
CONTINUOUS
 62
    7
370
   -1
100
AcDbLine
 10
302.1645751056412
 20
167.9645468900498
 11
288.414575105061
 21
167.9645468900498
  0
LINE
  5
250
100
AcDbEntity
  8
0
  6
CONTINUOUS
 62
    7
370
   -1
100
AcDbLine
 10
320.164575105061
 20
167.9645468900498
 11
306.4145751044807
 21
167.9645468900498
  0
LINE
  5
251
100
AcDbEntity
  8
0
  6
CONTINUOUS
 62
    7
370
   -1
100
AcDbLine
 10
137.7895751059813
 20
164.5645468904697
 11
132.289575105241
 21
164.5645468904697
  0
LINE
  5
252
100
AcDbEntity
  8
0
  6
CONTINUOUS
 62
    7
370
   -1
100
AcDbLine
 10
202.0395751045807
 20
174.0645468896698
 11
202.0395751045807
 21
174.6645468910896
  0
LINE
  5
253
100
AcDbEntity
  8
0
  6
CONTINUOUS
 62
    7
370
   -1
100
AcDbLine
 10
136.9145751059213
 20
163.0645468907298
 11
133.1645751053011
 21
163.0645468907298
  0
LINE
  5
254
100
AcDbEntity
  8
0
  6
CONTINUOUS
 62
    7
370
   -1
100
AcDbLine
 10
201.5395751038213
 20
174.6645468910896
 11
201.5395751038213
 21
174.0645468896698
  0
LINE
  5
255
100
AcDbEntity
  8
0
  6
CONTINUOUS
 62
    7
370
   -1
100
AcDbLine
 10
199.1645751040214
 20
167.9645468900498
 11
199.1645751040214
 21
169.5645468904497
  0
LINE
  5
256
100
AcDbEntity
  8
0
  6
CONTINUOUS
 62
    7
370
   -1
100
AcDbLine
 10
199.039575105101
 20
174.6645468910896
 11
199.039575105101
 21
174.5645468904297
  0
LINE
  5
257
100
AcDbEntity
  8
0
  6
CONTINUOUS
 62
    7
370
   -1
100
AcDbLine
 10
198.4145751054211
 20
167.9645468900498
 11
198.4145751054211
 21
169.5645468904497
  0
LINE
  5
258
100
AcDbEntity
  8
0
  6
CONTINUOUS
 62
    7
370
   -1
100
AcDbLine
 10
197.5395751053611
 20
174.6645468910896
 11
197.5395751053611
 21
175.1645468918498
  0
LINE
  5
259
100
AcDbEntity
  8
0
  6
CONTINUOUS
 62
    7
370
   -1
100
AcDbLine
 10
197.0395751046007
 20
175.1645468918498
 11
197.0395751046007
 21
174.5645468904297
  0
LINE
  5
25A
100
AcDbEntity
  8
0
  6
CONTINUOUS
 62
    7
370
   -1
100
AcDbLine
 10
194.1645751040414
 20
167.9645468900498
 11
194.1645751040414
 21
169.5645468904497
  0
LINE
  5
25B
100
AcDbEntity
  8
0
  6
CONTINUOUS
 62
    7
370
   -1
100
AcDbLine
 10
193.4145751054411
 20
167.9645468900498
 11
193.4145751054411
 21
169.5645468904497
  0
LINE
  5
25C
100
AcDbEntity
  8
0
  6
CONTINUOUS
 62
    7
370
   -1
100
AcDbLine
 10
181.1645751046008
 20
167.9645468900498
 11
181.1645751046008
 21
169.5645468904497
  0
LINE
  5
25D
100
AcDbEntity
  8
0
  6
CONTINUOUS
 62
    7
370
   -1
100
AcDbLine
 10
180.4145751060014
 20
167.9645468900498
 11
180.4145751060014
 21
169.5645468904497
  0
LINE
  5
25E
100
AcDbEntity
  8
0
  6
CONTINUOUS
 62
    7
370
   -1
100
AcDbLine
 10
139.7395751048807
 20
174.5645468904297
 11
139.7395751048807
 21
175.1645468918498
  0
LINE
  5
25F
100
AcDbEntity
  8
0
  6
CONTINUOUS
 62
    7
370
   -1
100
AcDbLine
 10
139.2395751041213
 20
174.6645468910896
 11
139.2395751041213
 21
175.1645468918498
  0
LINE
  5
260
100
AcDbEntity
  8
0
  6
CONTINUOUS
 62
    7
370
   -1
100
AcDbLine
 10
139.0395751053411
 20
174.6645468910896
 11
139.0395751053411
 21
174.5645468904297
  0
LINE
  5
261
100
AcDbEntity
  8
0
  6
CONTINUOUS
 62
    7
370
   -1
100
AcDbLine
 10
138.6895751043011
 20
174.5645468904297
 11
138.6895751043011
 21
174.6645468910896
  0
LINE
  5
262
100
AcDbEntity
  8
0
  6
CONTINUOUS
 62
    7
370
   -1
100
AcDbLine
 10
138.6145751044414
 20
174.5645468904297
 11
138.6145751044414
 21
174.6645468910896
  0
LINE
  5
263
100
AcDbEntity
  8
0
  6
CONTINUOUS
 62
    7
370
   -1
100
AcDbLine
 10
137.7895751059813
 20
169.5645468904497
 11
137.7895751059813
 21
164.5645468904697
  0
LINE
  5
264
100
AcDbEntity
  8
0
  6
CONTINUOUS
 62
    7
370
   -1
100
AcDbLine
 10
136.9145751059213
 20
164.5645468904697
 11
136.9145751059213
 21
163.0645468907298
  0
LINE
  5
265
100
AcDbEntity
  8
0
  6
CONTINUOUS
 62
    7
370
   -1
100
AcDbLine
 10
136.1852190284407
 20
169.5645468904497
 11
136.1852190284407
 21
164.5645468904697
  0
LINE
  5
266
100
AcDbEntity
  8
0
  6
CONTINUOUS
 62
    7
370
   -1
100
AcDbLine
 10
135.239575105661
 20
174.5645468904297
 11
135.239575105661
 21
174.0645468896698
  0
LINE
  5
267
100
AcDbEntity
  8
0
  6
CONTINUOUS
 62
    7
370
   -1
100
AcDbLine
 10
134.7395751049007
 20
174.6645468910896
 11
134.7395751049007
 21
174.0645468896698
  0
LINE
  5
268
100
AcDbEntity
  8
0
  6
CONTINUOUS
 62
    7
370
   -1
100
AcDbLine
 10
133.8939311802414
 20
169.5645468904497
 11
133.8939311802414
 21
164.5645468904697
  0
LINE
  5
269
100
AcDbEntity
  8
0
  6
CONTINUOUS
 62
    7
370
   -1
100
AcDbLine
 10
133.1645751053011
 20
164.5645468904697
 11
133.1645751053011
 21
163.0645468907298
  0
LINE
  5
26A
100
AcDbEntity
  8
0
  6
CONTINUOUS
 62
    7
370
   -1
100
AcDbLine
 10
132.289575105241
 20
169.5645468904497
 11
132.289575105241
 21
164.5645468904697
  0
LINE
  5
26B
100
AcDbEntity
  8
0
  6
CONTINUOUS
 62
    7
370
   -1
100
AcDbLine
 10
121.0395751059213
 20
191.5645468908697
 11
121.0395751059213
 21
192.8145468902298
  0
LINE
  5
26C
100
AcDbEntity
  8
0
  6
CONTINUOUS
 62
    7
370
   -1
100
AcDbLine
 10
120.7538608183213
 20
191.5645468908697
 11
120.7538608183213
 21
192.8145468902298
  0
LINE
  5
26D
100
AcDbEntity
  8
0
  6
CONTINUOUS
 62
    7
370
   -1
100
AcDbLine
 10
111.3252893910212
 20
191.5645468908697
 11
111.3252893910212
 21
192.8145468902298
  0
LINE
  5
26E
100
AcDbEntity
  8
0
  6
CONTINUOUS
 62
    7
370
   -1
100
AcDbLine
 10
111.0395751059614
 20
191.5645468908697
 11
111.0395751059614
 21
192.8145468902298
  0
LINE
  5
26F
100
AcDbEntity
  8
0
  6
CONTINUOUS
 62
    7
370
   -1
100
AcDbLine
 10
109.6895751050006
 20
174.0645468896698
 11
109.6895751050006
 21
174.6645468910896
  0
LINE
  5
270
100
AcDbEntity
  8
0
  6
CONTINUOUS
 62
    7
370
   -1
100
AcDbLine
 10
109.539575105281
 20
174.0645468896698
 11
109.539575105281
 21
174.6645468910896
  0
LINE
  5
271
100
AcDbEntity
  8
0
  6
CONTINUOUS
 62
    7
370
   -1
100
AcDbLine
 10
109.1895751042411
 20
174.5645468904297
 11
109.1895751042411
 21
174.0645468896698
  0
LINE
  5
272
100
AcDbEntity
  8
0
  6
CONTINUOUS
 62
    7
370
   -1
100
AcDbLine
 10
109.0395751045207
 20
169.5645468904497
 11
109.0395751045207
 21
191.5645468908697
  0
LINE
  5
273
100
AcDbEntity
  8
0
  6
CONTINUOUS
 62
    7
370
   -1
100
AcDbLine
 10
108.0395751055412
 20
170.5645468919697
 11
108.0395751055412
 21
191.5645468908697
  0
LINE
  5
274
100
AcDbEntity
  8
0
  6
CONTINUOUS
 62
    7
370
   -1
100
AcDbLine
 10
97.03957510406055
 20
170.5645468919697
 11
97.03957510406055
 21
169.5645468904497
  0
LINE
  5
275
100
AcDbEntity
  8
0
  6
CONTINUOUS
 62
    7
370
   -1
100
AcDbLine
 10
96.53957510584134
 20
170.5645468919697
 11
96.53957510584134
 21
169.5645468904497
  0
LINE
  5
276
100
AcDbEntity
  8
0
  6
CONTINUOUS
 62
    7
370
   -1
100
AcDbLine
 10
337.5395751057413
 20
109.6871935094375
 11
337.5395751057413
 21
130.6871935108774
  0
LINE
  5
277
100
AcDbEntity
  8
0
  6
CONTINUOUS
 62
    7
370
   -1
100
AcDbLine
 10
325.6395751059408
 20
131.1871935090976
 11
325.6395751059408
 21
109.1871935112176
  0
LINE
  5
278
100
AcDbEntity
  8
0
  6
CONTINUOUS
 62
    7
370
   -1
100
AcDbLine
 10
325.0395751045207
 20
131.1871935090976
 11
325.0395751045207
 21
109.1873996957174
  0
LINE
  5
279
100
AcDbEntity
  8
0
  6
CONTINUOUS
 62
    7
370
   -1
100
AcDbLine
 10
320.164575105061
 20
112.1871935106974
 11
320.164575105061
 21
128.1871935096176
  0
LINE
  5
27A
100
AcDbEntity
  8
0
  6
CONTINUOUS
 62
    7
370
   -1
100
AcDbLine
 10
318.8145751050406
 20
116.2014070722976
 11
318.8145751050406
 21
124.1729799480176
  0
LINE
  5
27B
100
AcDbEntity
  8
0
  6
CONTINUOUS
 62
    7
370
   -1
100
AcDbLine
 10
317.1145751039812
 20
117.1227274165976
 11
317.1145751039812
 21
123.2516596037176
  0
LINE
  5
27C
100
AcDbEntity
  8
0
  6
CONTINUOUS
 62
    7
370
   -1
100
AcDbLine
 10
315.5895751059806
 20
119.5371935096775
 11
315.5895751059806
 21
120.8371935106374
  0
LINE
  5
27D
100
AcDbEntity
  8
0
  6
CONTINUOUS
 62
    7
370
   -1
100
AcDbLine
 10
313.5895751054813
 20
123.0371935099174
 11
313.5895751054813
 21
124.3371935108775
  0
LINE
  5
27E
100
AcDbEntity
  8
0
  6
CONTINUOUS
 62
    7
370
   -1
100
AcDbLine
 10
313.5895751054813
 20
116.0371935094376
 11
313.5895751054813
 21
117.3371935103975
  0
LINE
  5
27F
100
AcDbEntity
  8
0
  6
CONTINUOUS
 62
    7
370
   -1
100
AcDbLine
 10
312.9895751040613
 20
120.8371935106374
 11
312.9895751040613
 21
119.5371935096775
  0
LINE
  5
280
100
AcDbEntity
  8
0
  6
CONTINUOUS
 62
    7
370
   -1
100
AcDbLine
 10
310.9895751061013
 20
117.3371935103975
 11
310.9895751061013
 21
116.0371935094376
  0
LINE
  5
281
100
AcDbEntity
  8
0
  6
CONTINUOUS
 62
    7
370
   -1
100
AcDbLine
 10
310.9895751061013
 20
124.3371935108775
 11
310.9895751061013
 21
123.0371935099174
  0
LINE
  5
282
100
AcDbEntity
  8
0
  6
CONTINUOUS
 62
    7
370
   -1
100
AcDbLine
 10
309.4645751055614
 20
124.1871935111576
 11
309.4645751055614
 21
116.1871935091576
  0
LINE
  5
283
100
AcDbEntity
  8
0
  6
CONTINUOUS
 62
    7
370
   -1
100
AcDbLine
 10
307.7645751045011
 20
125.5871935102375
 11
307.7645751045011
 21
114.7871935100775
  0
LINE
  5
284
100
AcDbEntity
  8
0
  6
CONTINUOUS
 62
    7
370
   -1
100
AcDbLine
 10
306.4145751044807
 20
128.1871935096176
 11
306.4145751044807
 21
112.1871935106974
  0
LINE
  5
285
100
AcDbEntity
  8
0
  6
CONTINUOUS
 62
    7
370
   -1
100
AcDbLine
 10
302.1645751056412
 20
112.1871935106974
 11
302.1645751056412
 21
128.1871935096176
  0
LINE
  5
286
100
AcDbEntity
  8
0
  6
CONTINUOUS
 62
    7
370
   -1
100
AcDbLine
 10
300.8145751056209
 20
116.2014070722976
 11
300.8145751056209
 21
124.1729799480176
  0
LINE
  5
287
100
AcDbEntity
  8
0
  6
CONTINUOUS
 62
    7
370
   -1
100
AcDbLine
 10
299.1145751045606
 20
117.1227274165976
 11
299.1145751045606
 21
123.2516596037176
  0
LINE
  5
288
100
AcDbEntity
  8
0
  6
CONTINUOUS
 62
    7
370
   -1
100
AcDbLine
 10
318.5216818859008
 20
124.8800867278576
 11
316.1074683247007
 21
127.2943002915976
  0
LINE
  5
289
100
AcDbEntity
  8
0
  6
CONTINUOUS
 62
    7
370
   -1
100
AcDbLine
 10
316.1074683247007
 20
113.0800867287175
 11
318.5216818859008
 21
115.4943002924574
  0
LINE
  5
28A
100
AcDbEntity
  8
0
  6
CONTINUOUS
 62
    7
370
   -1
100
AcDbLine
 10
297.5895751040207
 20
119.5371935096775
 11
297.5895751040207
 21
120.8371935106374
  0
LINE
  5
28B
100
AcDbEntity
  8
0
  6
CONTINUOUS
 62
    7
370
   -1
100
AcDbLine
 10
295.5895751060607
 20
123.0371935099174
 11
295.5895751060607
 21
124.3371935108775
  0
LINE
  5
28C
100
AcDbEntity
  8
0
  6
CONTINUOUS
 62
    7
370
   -1
100
AcDbLine
 10
295.5895751060607
 20
116.0371935094376
 11
295.5895751060607
 21
117.3371935103975
  0
LINE
  5
28D
100
AcDbEntity
  8
0
  6
CONTINUOUS
 62
    7
370
   -1
100
AcDbLine
 10
294.9895751046406
 20
120.8371935106374
 11
294.9895751046406
 21
119.5371935096775
  0
LINE
  5
28E
100
AcDbEntity
  8
0
  6
CONTINUOUS
 62
    7
370
   -1
100
AcDbLine
 10
292.9895751041413
 20
117.3371935103975
 11
292.9895751041413
 21
116.0371935094376
  0
LINE
  5
28F
100
AcDbEntity
  8
0
  6
CONTINUOUS
 62
    7
370
   -1
100
AcDbLine
 10
292.9895751041413
 20
124.3371935108775
 11
292.9895751041413
 21
123.0371935099174
  0
LINE
  5
290
100
AcDbEntity
  8
0
  6
CONTINUOUS
 62
    7
370
   -1
100
AcDbLine
 10
291.4645751061407
 20
124.1871935111576
 11
291.4645751061407
 21
116.1871935091576
  0
LINE
  5
291
100
AcDbEntity
  8
0
  6
CONTINUOUS
 62
    7
370
   -1
100
AcDbLine
 10
316.9681284956814
 20
123.6052129936374
 11
315.032594589261
 21
125.5407469000574
  0
LINE
  5
292
100
AcDbEntity
  8
0
  6
CONTINUOUS
 62
    7
370
   -1
100
AcDbLine
 10
315.032594589261
 20
114.8336401202575
 11
316.9681284956814
 21
116.7691740266775
  0
LINE
  5
293
100
AcDbEntity
  8
0
  6
CONTINUOUS
 62
    7
370
   -1
100
AcDbLine
 10
289.7645751050813
 20
125.5871935102375
 11
289.7645751050813
 21
114.7871935100775
  0
LINE
  5
294
100
AcDbEntity
  8
0
  6
CONTINUOUS
 62
    7
370
   -1
100
AcDbLine
 10
288.414575105061
 20
128.1871935096176
 11
288.414575105061
 21
112.1871935106974
  0
LINE
  5
295
100
AcDbEntity
  8
0
  6
CONTINUOUS
 62
    7
370
   -1
100
AcDbLine
 10
284.1645751036813
 20
112.1871935106974
 11
284.1645751036813
 21
128.1871935096176
  0
LINE
  5
296
100
AcDbEntity
  8
0
  6
CONTINUOUS
 62
    7
370
   -1
100
AcDbLine
 10
282.8145751062011
 20
116.2014070722976
 11
282.8145751062011
 21
124.1729799480176
  0
LINE
  5
297
100
AcDbEntity
  8
0
  6
CONTINUOUS
 62
    7
370
   -1
100
AcDbLine
 10
300.521681886481
 20
124.8800867278576
 11
298.1074683227407
 21
127.2943002915976
  0
LINE
  5
298
100
AcDbEntity
  8
0
  6
CONTINUOUS
 62
    7
370
   -1
100
AcDbLine
 10
298.9681284962608
 20
123.6052129936374
 11
297.0325945898412
 21
125.5407469000574
  0
LINE
  5
299
100
AcDbEntity
  8
0
  6
CONTINUOUS
 62
    7
370
   -1
100
AcDbLine
 10
298.1074683227407
 20
113.0800867287175
 11
300.521681886481
 21
115.4943002924574
  0
LINE
  5
29A
100
AcDbEntity
  8
0
  6
CONTINUOUS
 62
    7
370
   -1
100
AcDbLine
 10
297.0325945898412
 20
114.8336401202575
 11
298.9681284962608
 21
116.7691740266775
  0
LINE
  5
29B
100
AcDbEntity
  8
0
  6
CONTINUOUS
 62
    7
370
   -1
100
AcDbLine
 10
281.1145751051408
 20
117.1227274165976
 11
281.1145751051408
 21
123.2516596037176
  0
LINE
  5
29C
100
AcDbEntity
  8
0
  6
CONTINUOUS
 62
    7
370
   -1
100
AcDbLine
 10
279.589575104601
 20
119.5371935096775
 11
279.589575104601
 21
120.8371935106374
  0
LINE
  5
29D
100
AcDbEntity
  8
0
  6
CONTINUOUS
 62
    7
370
   -1
100
AcDbLine
 10
277.5895751041007
 20
123.0371935099174
 11
277.5895751041007
 21
124.3371935108775
  0
LINE
  5
29E
100
AcDbEntity
  8
0
  6
CONTINUOUS
 62
    7
370
   -1
100
AcDbLine
 10
277.5895751041007
 20
116.0371935094376
 11
277.5895751041007
 21
117.3371935103975
  0
LINE
  5
29F
100
AcDbEntity
  8
0
  6
CONTINUOUS
 62
    7
370
   -1
100
AcDbLine
 10
276.9895751052209
 20
120.8371935106374
 11
276.9895751052209
 21
119.5371935096775
  0
LINE
  5
2A0
100
AcDbEntity
  8
0
  6
CONTINUOUS
 62
    7
370
   -1
100
AcDbLine
 10
274.9895751047207
 20
117.3371935103975
 11
274.9895751047207
 21
116.0371935094376
  0
LINE
  5
2A1
100
AcDbEntity
  8
0
  6
CONTINUOUS
 62
    7
370
   -1
100
AcDbLine
 10
274.9895751047207
 20
124.3371935108775
 11
274.9895751047207
 21
123.0371935099174
  0
LINE
  5
2A2
100
AcDbEntity
  8
0
  6
CONTINUOUS
 62
    7
370
   -1
100
AcDbLine
 10
282.5216818870613
 20
124.8800867278576
 11
280.107468323321
 21
127.2943002915976
  0
LINE
  5
2A3
100
AcDbEntity
  8
0
  6
CONTINUOUS
 62
    7
370
   -1
100
AcDbLine
 10
280.107468323321
 20
113.0800867287175
 11
282.5216818870613
 21
115.4943002924574
  0
LINE
  5
2A4
100
AcDbEntity
  8
0
  6
CONTINUOUS
 62
    7
370
   -1
100
AcDbLine
 10
273.4645751041808
 20
124.1871935111576
 11
273.4645751041808
 21
116.1871935091576
  0
LINE
  5
2A5
100
AcDbEntity
  8
0
  6
CONTINUOUS
 62
    7
370
   -1
100
AcDbLine
 10
271.7645751056607
 20
125.5871935102375
 11
271.7645751056607
 21
114.7871935100775
  0
LINE
  5
2A6
100
AcDbEntity
  8
0
  6
CONTINUOUS
 62
    7
370
   -1
100
AcDbLine
 10
270.4145751056412
 20
128.1871935096176
 11
270.4145751056412
 21
112.1871935106974
  0
LINE
  5
2A7
100
AcDbEntity
  8
0
  6
CONTINUOUS
 62
    7
370
   -1
100
AcDbLine
 10
280.9681284943008
 20
123.6052129936374
 11
279.0325945904206
 21
125.5407469000574
  0
LINE
  5
2A8
100
AcDbEntity
  8
0
  6
CONTINUOUS
 62
    7
370
   -1
100
AcDbLine
 10
279.0325945904206
 20
114.8336401202575
 11
280.9681284943008
 21
116.7691740266775
  0
LINE
  5
2A9
100
AcDbEntity
  8
0
  6
CONTINUOUS
 62
    7
370
   -1
100
AcDbLine
 10
266.1645751042606
 20
112.1871935106974
 11
266.1645751042606
 21
128.1871935096176
  0
LINE
  5
2AA
100
AcDbEntity
  8
0
  6
CONTINUOUS
 62
    7
370
   -1
100
AcDbLine
 10
264.8145751042412
 20
116.2014070722976
 11
264.8145751042412
 21
124.1729799480176
  0
LINE
  5
2AB
100
AcDbEntity
  8
0
  6
CONTINUOUS
 62
    7
370
   -1
100
AcDbLine
 10
263.1145751057211
 20
117.1227274165976
 11
263.1145751057211
 21
123.2516596037176
  0
LINE
  5
2AC
100
AcDbEntity
  8
0
  6
CONTINUOUS
 62
    7
370
   -1
100
AcDbLine
 10
261.5895751051812
 20
119.5371935096775
 11
261.5895751051812
 21
120.8371935106374
  0
LINE
  5
2AD
100
AcDbEntity
  8
0
  6
CONTINUOUS
 62
    7
370
   -1
100
AcDbLine
 10
259.589575104681
 20
123.0371935099174
 11
259.589575104681
 21
124.3371935108775
  0
LINE
  5
2AE
100
AcDbEntity
  8
0
  6
CONTINUOUS
 62
    7
370
   -1
100
AcDbLine
 10
259.589575104681
 20
116.0371935094376
 11
259.589575104681
 21
117.3371935103975
  0
LINE
  5
2AF
100
AcDbEntity
  8
0
  6
CONTINUOUS
 62
    7
370
   -1
100
AcDbLine
 10
258.9895751058011
 20
120.8371935106374
 11
258.9895751058011
 21
119.5371935096775
  0
LINE
  5
2B0
100
AcDbEntity
  8
0
  6
CONTINUOUS
 62
    7
370
   -1
100
AcDbLine
 10
264.5216818851013
 20
124.8800867278576
 11
262.1074683239012
 21
127.2943002915976
  0
LINE
  5
2B1
100
AcDbEntity
  8
0
  6
CONTINUOUS
 62
    7
370
   -1
100
AcDbLine
 10
262.968128494881
 20
123.6052129936374
 11
261.0325945884615
 21
125.5407469000574
  0
LINE
  5
2B2
100
AcDbEntity
  8
0
  6
CONTINUOUS
 62
    7
370
   -1
100
AcDbLine
 10
262.1074683239012
 20
113.0800867287175
 11
264.5216818851013
 21
115.4943002924574
  0
LINE
  5
2B3
100
AcDbEntity
  8
0
  6
CONTINUOUS
 62
    7
370
   -1
100
AcDbLine
 10
261.0325945884615
 20
114.8336401202575
 11
262.968128494881
 21
116.7691740266775
  0
LINE
  5
2B4
100
AcDbEntity
  8
0
  6
CONTINUOUS
 62
    7
370
   -1
100
AcDbLine
 10
256.9895751053009
 20
117.3371935103975
 11
256.9895751053009
 21
116.0371935094376
  0
LINE
  5
2B5
100
AcDbEntity
  8
0
  6
CONTINUOUS
 62
    7
370
   -1
100
AcDbLine
 10
256.9895751053009
 20
124.3371935108775
 11
256.9895751053009
 21
123.0371935099174
  0
LINE
  5
2B6
100
AcDbEntity
  8
0
  6
CONTINUOUS
 62
    7
370
   -1
100
AcDbLine
 10
255.464575104761
 20
124.1871935111576
 11
255.464575104761
 21
116.1871935091576
  0
LINE
  5
2B7
100
AcDbEntity
  8
0
  6
CONTINUOUS
 62
    7
370
   -1
100
AcDbLine
 10
253.7645751037008
 20
125.5871935102375
 11
253.7645751037008
 21
114.7871935100775
  0
LINE
  5
2B8
100
AcDbEntity
  8
0
  6
CONTINUOUS
 62
    7
370
   -1
100
AcDbLine
 10
252.4145751036813
 20
128.1871935096176
 11
252.4145751036813
 21
112.1871935106974
  0
LINE
  5
2B9
100
AcDbEntity
  8
0
  6
CONTINUOUS
 62
    7
370
   -1
100
AcDbLine
 10
248.1645751048409
 20
112.1871935106974
 11
248.1645751048409
 21
128.1871935096176
  0
LINE
  5
2BA
100
AcDbEntity
  8
0
  6
CONTINUOUS
 62
    7
370
   -1
100
AcDbLine
 10
246.8145751048214
 20
116.2014070722976
 11
246.8145751048214
 21
124.1729799480176
  0
LINE
  5
2BB
100
AcDbEntity
  8
0
  6
CONTINUOUS
 62
    7
370
   -1
100
AcDbLine
 10
245.1145751037611
 20
117.1227274165976
 11
245.1145751037611
 21
123.2516596037176
  0
LINE
  5
2BC
100
AcDbEntity
  8
0
  6
CONTINUOUS
 62
    7
370
   -1
100
AcDbLine
 10
243.5895751057615
 20
119.5371935096775
 11
243.5895751057615
 21
120.8371935106374
  0
LINE
  5
2BD
100
AcDbEntity
  8
0
  6
CONTINUOUS
 62
    7
370
   -1
100
AcDbLine
 10
246.5216818856807
 20
124.8800867278576
 11
244.1074683244806
 21
127.2943002915976
  0
LINE
  5
2BE
100
AcDbEntity
  8
0
  6
CONTINUOUS
 62
    7
370
   -1
100
AcDbLine
 10
244.9681284954613
 20
123.6052129936374
 11
243.0325945890408
 21
125.5407469000574
  0
LINE
  5
2BF
100
AcDbEntity
  8
0
  6
CONTINUOUS
 62
    7
370
   -1
100
AcDbLine
 10
244.1074683244806
 20
113.0800867287175
 11
246.5216818856807
 21
115.4943002924574
  0
LINE
  5
2C0
100
AcDbEntity
  8
0
  6
CONTINUOUS
 62
    7
370
   -1
100
AcDbLine
 10
243.0325945890408
 20
114.8336401202575
 11
244.9681284954613
 21
116.7691740266775
  0
LINE
  5
2C1
100
AcDbEntity
  8
0
  6
CONTINUOUS
 62
    7
370
   -1
100
AcDbLine
 10
241.5895751052612
 20
123.0371935099174
 11
241.5895751052612
 21
124.3371935108775
  0
LINE
  5
2C2
100
AcDbEntity
  8
0
  6
CONTINUOUS
 62
    7
370
   -1
100
AcDbLine
 10
241.5895751052612
 20
116.0371935094376
 11
241.5895751052612
 21
117.3371935103975
  0
LINE
  5
2C3
100
AcDbEntity
  8
0
  6
CONTINUOUS
 62
    7
370
   -1
100
AcDbLine
 10
240.9895751038412
 20
120.8371935106374
 11
240.9895751038412
 21
119.5371935096775
  0
LINE
  5
2C4
100
AcDbEntity
  8
0
  6
CONTINUOUS
 62
    7
370
   -1
100
AcDbLine
 10
238.9895751058812
 20
117.3371935103975
 11
238.9895751058812
 21
116.0371935094376
  0
LINE
  5
2C5
100
AcDbEntity
  8
0
  6
CONTINUOUS
 62
    7
370
   -1
100
AcDbLine
 10
238.9895751058812
 20
124.3371935108775
 11
238.9895751058812
 21
123.0371935099174
  0
LINE
  5
2C6
100
AcDbEntity
  8
0
  6
CONTINUOUS
 62
    7
370
   -1
100
AcDbLine
 10
237.4645751053413
 20
124.1871935111576
 11
237.4645751053413
 21
116.1871935091576
  0
LINE
  5
2C7
100
AcDbEntity
  8
0
  6
CONTINUOUS
 62
    7
370
   -1
100
AcDbLine
 10
235.764575104281
 20
125.5871935102375
 11
235.764575104281
 21
114.7871935100775
  0
LINE
  5
2C8
100
AcDbEntity
  8
0
  6
CONTINUOUS
 62
    7
370
   -1
100
AcDbLine
 10
234.4145751042606
 20
128.1871935096176
 11
234.4145751042606
 21
112.1871935106974
  0
LINE
  5
2C9
100
AcDbEntity
  8
0
  6
CONTINUOUS
 62
    7
370
   -1
100
AcDbLine
 10
228.5216818862609
 20
124.8800867278576
 11
226.1074683225206
 21
127.2943002915976
  0
LINE
  5
2CA
100
AcDbEntity
  8
0
  6
CONTINUOUS
 62
    7
370
   -1
100
AcDbLine
 10
226.9681284960407
 20
123.6052129936374
 11
225.0325945896211
 21
125.5407469000574
  0
LINE
  5
2CB
100
AcDbEntity
  8
0
  6
CONTINUOUS
 62
    7
370
   -1
100
AcDbLine
 10
97.03957510406055
 20
131.1871935090976
 11
337.0395751049809
 21
131.1871935090976
  0
LINE
  5
2CC
100
AcDbEntity
  8
0
  6
CONTINUOUS
 62
    7
370
   -1
100
AcDbLine
 10
325.0395751045207
 20
130.6871935108774
 11
109.0395751045207
 21
130.6871935108774
  0
LINE
  5
2CD
100
AcDbEntity
  8
0
  6
CONTINUOUS
 62
    7
370
   -1
100
AcDbLine
 10
104.0395751045407
 20
129.8746935102776
 11
100.0395751060805
 21
129.8746935102776
  0
LINE
  5
2CE
100
AcDbEntity
  8
0
  6
CONTINUOUS
 62
    7
370
   -1
100
AcDbLine
 10
334.0395751055012
 20
129.8746935102776
 11
330.0395751045007
 21
129.8746935102776
  0
LINE
  5
2CF
100
AcDbEntity
  8
0
  6
CONTINUOUS
 62
    7
370
   -1
100
AcDbLine
 10
226.1074683225206
 20
113.0800867287175
 11
228.5216818862609
 21
115.4943002924574
  0
LINE
  5
2D0
100
AcDbEntity
  8
0
  6
CONTINUOUS
 62
    7
370
   -1
100
AcDbLine
 10
225.0325945896211
 20
114.8336401202575
 11
226.9681284960407
 21
116.7691740266775
  0
LINE
  5
2D1
100
AcDbEntity
  8
0
  6
CONTINUOUS
 62
    7
370
   -1
100
AcDbLine
 10
230.1645751054211
 20
112.1871935106974
 11
230.1645751054211
 21
128.1871935096176
  0
LINE
  5
2D2
100
AcDbEntity
  8
0
  6
CONTINUOUS
 62
    7
370
   -1
100
AcDbLine
 10
228.8145751054007
 20
116.2014070722976
 11
228.8145751054007
 21
124.1729799480176
  0
LINE
  5
2D3
100
AcDbEntity
  8
0
  6
CONTINUOUS
 62
    7
370
   -1
100
AcDbLine
 10
227.1145751043414
 20
117.1227274165976
 11
227.1145751043414
 21
123.2516596037176
  0
LINE
  5
2D4
100
AcDbEntity
  8
0
  6
CONTINUOUS
 62
    7
370
   -1
100
AcDbLine
 10
193.4145751054411
 20
128.9371935107574
 11
181.1645751046008
 21
128.9371935107574
  0
LINE
  5
2D5
100
AcDbEntity
  8
0
  6
CONTINUOUS
 62
    7
370
   -1
100
AcDbLine
 10
211.4145751048609
 20
128.9371935107574
 11
199.1645751040214
 21
128.9371935107574
  0
LINE
  5
2D6
100
AcDbEntity
  8
0
  6
CONTINUOUS
 62
    7
370
   -1
100
AcDbLine
 10
229.4145751042806
 20
128.9371935107574
 11
217.1645751059814
 21
128.9371935107574
  0
LINE
  5
2D7
100
AcDbEntity
  8
0
  6
CONTINUOUS
 62
    7
370
   -1
100
AcDbLine
 10
247.4145751037013
 20
128.9371935107574
 11
235.1645751054011
 21
128.9371935107574
  0
LINE
  5
2D8
100
AcDbEntity
  8
0
  6
CONTINUOUS
 62
    7
370
   -1
100
AcDbLine
 10
265.4145751056613
 20
128.9371935107574
 11
253.1645751048209
 21
128.9371935107574
  0
LINE
  5
2D9
100
AcDbEntity
  8
0
  6
CONTINUOUS
 62
    7
370
   -1
100
AcDbLine
 10
283.414575105081
 20
128.9371935107574
 11
271.1645751042415
 21
128.9371935107574
  0
LINE
  5
2DA
100
AcDbEntity
  8
0
  6
CONTINUOUS
 62
    7
370
   -1
100
AcDbLine
 10
301.4145751045007
 20
128.9371935107574
 11
289.1645751062006
 21
128.9371935107574
  0
LINE
  5
2DB
100
AcDbEntity
  8
0
  6
CONTINUOUS
 62
    7
370
   -1
100
AcDbLine
 10
319.4145751039214
 20
128.9371935107574
 11
307.1645751056212
 21
128.9371935107574
  0
LINE
  5
2DC
100
AcDbEntity
  8
0
  6
CONTINUOUS
 62
    7
370
   -1
100
AcDbLine
 10
189.4003615413012
 20
127.5871935107375
 11
183.7645751039808
 21
127.5871935107375
  0
LINE
  5
2DD
100
AcDbEntity
  8
0
  6
CONTINUOUS
 62
    7
370
   -1
100
AcDbLine
 10
207.4003615432612
 20
127.5871935107375
 11
201.7645751059408
 21
127.5871935107375
  0
LINE
  5
2DE
100
AcDbEntity
  8
0
  6
CONTINUOUS
 62
    7
370
   -1
100
AcDbLine
 10
225.4003615426809
 20
127.5871935107375
 11
219.7645751053606
 21
127.5871935107375
  0
LINE
  5
2DF
100
AcDbEntity
  8
0
  6
CONTINUOUS
 62
    7
370
   -1
100
AcDbLine
 10
243.4003615421007
 20
127.5871935107375
 11
237.7645751047812
 21
127.5871935107375
  0
LINE
  5
2E0
100
AcDbEntity
  8
0
  6
CONTINUOUS
 62
    7
370
   -1
100
AcDbLine
 10
261.4003615415213
 20
127.5871935107375
 11
255.7645751042009
 21
127.5871935107375
  0
LINE
  5
2E1
100
AcDbEntity
  8
0
  6
CONTINUOUS
 62
    7
370
   -1
100
AcDbLine
 10
279.4003615434813
 20
127.5871935107375
 11
273.7645751061609
 21
127.5871935107375
  0
LINE
  5
2E2
100
AcDbEntity
  8
0
  6
CONTINUOUS
 62
    7
370
   -1
100
AcDbLine
 10
297.400361542901
 20
127.5871935107375
 11
291.7645751055807
 21
127.5871935107375
  0
LINE
  5
2E3
100
AcDbEntity
  8
0
  6
CONTINUOUS
 62
    7
370
   -1
100
AcDbLine
 10
315.4003615423207
 20
127.5871935107375
 11
309.7645751050013
 21
127.5871935107375
  0
LINE
  5
2E4
100
AcDbEntity
  8
0
  6
CONTINUOUS
 62
    7
370
   -1
100
AcDbLine
 10
330.0395751045007
 20
126.3746935100375
 11
334.0395751055012
 21
126.3746935100375
  0
LINE
  5
2E5
100
AcDbEntity
  8
0
  6
CONTINUOUS
 62
    7
370
   -1
100
AcDbLine
 10
100.0395751060805
 20
126.3746935100375
 11
104.0395751045407
 21
126.3746935100375
  0
LINE
  5
2E6
100
AcDbEntity
  8
0
  6
CONTINUOUS
 62
    7
370
   -1
100
AcDbLine
 10
188.6790411983211
 20
125.6871935108975
 11
184.9645751042808
 21
125.6871935108975
  0
LINE
  5
2E7
100
AcDbEntity
  8
0
  6
CONTINUOUS
 62
    7
370
   -1
100
AcDbLine
 10
206.6790411977408
 20
125.6871935108975
 11
202.9645751037005
 21
125.6871935108975
  0
LINE
  5
2E8
100
AcDbEntity
  8
0
  6
CONTINUOUS
 62
    7
370
   -1
100
AcDbLine
 10
224.6790411997008
 20
125.6871935108975
 11
220.9645751056614
 21
125.6871935108975
  0
LINE
  5
2E9
100
AcDbEntity
  8
0
  6
CONTINUOUS
 62
    7
370
   -1
100
AcDbLine
 10
242.6790411991214
 20
125.6871935108975
 11
238.9645751050812
 21
125.6871935108975
  0
LINE
  5
2EA
100
AcDbEntity
  8
0
  6
CONTINUOUS
 62
    7
370
   -1
100
AcDbLine
 10
260.6790411985412
 20
125.6871935108975
 11
256.9645751045009
 21
125.6871935108975
  0
LINE
  5
2EB
100
AcDbEntity
  8
0
  6
CONTINUOUS
 62
    7
370
   -1
100
AcDbLine
 10
278.6790411979609
 20
125.6871935108975
 11
274.9645751039206
 21
125.6871935108975
  0
LINE
  5
2EC
100
AcDbEntity
  8
0
  6
CONTINUOUS
 62
    7
370
   -1
100
AcDbLine
 10
296.6790411999209
 20
125.6871935108975
 11
292.9645751058815
 21
125.6871935108975
  0
LINE
  5
2ED
100
AcDbEntity
  8
0
  6
CONTINUOUS
 62
    7
370
   -1
100
AcDbLine
 10
314.6790411993407
 20
125.6871935108975
 11
310.9645751053013
 21
125.6871935108975
  0
LINE
  5
2EE
100
AcDbEntity
  8
0
  6
CONTINUOUS
 62
    7
370
   -1
100
AcDbLine
 10
187.5895751044609
 20
124.3371935108775
 11
184.9895751050808
 21
124.3371935108775
  0
LINE
  5
2EF
100
AcDbEntity
  8
0
  6
CONTINUOUS
 62
    7
370
   -1
100
AcDbLine
 10
205.5895751038806
 20
124.3371935108775
 11
202.9895751045014
 21
124.3371935108775
  0
LINE
  5
2F0
100
AcDbEntity
  8
0
  6
CONTINUOUS
 62
    7
370
   -1
100
AcDbLine
 10
223.5895751058406
 20
124.3371935108775
 11
220.9895751039212
 21
124.3371935108775
  0
LINE
  5
2F1
100
AcDbEntity
  8
0
  6
CONTINUOUS
 62
    7
370
   -1
100
AcDbLine
 10
241.5895751052612
 20
124.3371935108775
 11
238.9895751058812
 21
124.3371935108775
  0
LINE
  5
2F2
100
AcDbEntity
  8
0
  6
CONTINUOUS
 62
    7
370
   -1
100
AcDbLine
 10
259.589575104681
 20
124.3371935108775
 11
256.9895751053009
 21
124.3371935108775
  0
LINE
  5
2F3
100
AcDbEntity
  8
0
  6
CONTINUOUS
 62
    7
370
   -1
100
AcDbLine
 10
277.5895751041007
 20
124.3371935108775
 11
274.9895751047207
 21
124.3371935108775
  0
LINE
  5
2F4
100
AcDbEntity
  8
0
  6
CONTINUOUS
 62
    7
370
   -1
100
AcDbLine
 10
295.5895751060607
 20
124.3371935108775
 11
292.9895751041413
 21
124.3371935108775
  0
LINE
  5
2F5
100
AcDbEntity
  8
0
  6
CONTINUOUS
 62
    7
370
   -1
100
AcDbLine
 10
313.5895751054813
 20
124.3371935108775
 11
310.9895751061013
 21
124.3371935108775
  0
LINE
  5
2F6
100
AcDbEntity
  8
0
  6
CONTINUOUS
 62
    7
370
   -1
100
AcDbLine
 10
310.9895751061013
 20
123.0371935099174
 11
313.5895751054813
 21
123.0371935099174
  0
LINE
  5
2F7
100
AcDbEntity
  8
0
  6
CONTINUOUS
 62
    7
370
   -1
100
AcDbLine
 10
292.9895751041413
 20
123.0371935099174
 11
295.5895751060607
 21
123.0371935099174
  0
LINE
  5
2F8
100
AcDbEntity
  8
0
  6
CONTINUOUS
 62
    7
370
   -1
100
AcDbLine
 10
274.9895751047207
 20
123.0371935099174
 11
277.5895751041007
 21
123.0371935099174
  0
LINE
  5
2F9
100
AcDbEntity
  8
0
  6
CONTINUOUS
 62
    7
370
   -1
100
AcDbLine
 10
256.9895751053009
 20
123.0371935099174
 11
259.589575104681
 21
123.0371935099174
  0
LINE
  5
2FA
100
AcDbEntity
  8
0
  6
CONTINUOUS
 62
    7
370
   -1
100
AcDbLine
 10
238.9895751058812
 20
123.0371935099174
 11
241.5895751052612
 21
123.0371935099174
  0
LINE
  5
2FB
100
AcDbEntity
  8
0
  6
CONTINUOUS
 62
    7
370
   -1
100
AcDbLine
 10
220.9895751039212
 20
123.0371935099174
 11
223.5895751058406
 21
123.0371935099174
  0
LINE
  5
2FC
100
AcDbEntity
  8
0
  6
CONTINUOUS
 62
    7
370
   -1
100
AcDbLine
 10
202.9895751045014
 20
123.0371935099174
 11
205.5895751038806
 21
123.0371935099174
  0
LINE
  5
2FD
100
AcDbEntity
  8
0
  6
CONTINUOUS
 62
    7
370
   -1
100
AcDbLine
 10
184.9895751050808
 20
123.0371935099174
 11
187.5895751044609
 21
123.0371935099174
  0
LINE
  5
2FE
100
AcDbEntity
  8
0
  6
CONTINUOUS
 62
    7
370
   -1
100
AcDbLine
 10
136.1852190284407
 20
122.6871935114177
 11
133.8939311802414
 21
122.6871935114177
  0
LINE
  5
2FF
100
AcDbEntity
  8
0
  6
CONTINUOUS
 62
    7
370
   -1
100
AcDbLine
 10
104.0395751045407
 20
121.9371935102776
 11
100.0395751060805
 21
121.9371935102776
  0
LINE
  5
300
100
AcDbEntity
  8
0
  6
CONTINUOUS
 62
    7
370
   -1
100
AcDbLine
 10
334.0395751055012
 20
121.9371935102776
 11
330.0395751045007
 21
121.9371935102776
  0
LINE
  5
301
100
AcDbEntity
  8
02___PRT_ALL_AXES
  6
CONTINUOUS
 62
    7
370
   -1
100
AcDbLine
 10
164.9645751043608
 20
121.3121935105976
 11
158.6145751043614
 21
121.3121935105976
  0
LINE
  5
302
100
AcDbEntity
  8
0
  6
CONTINUOUS
 62
    7
370
   -1
100
AcDbLine
 10
225.5895751038006
 20
119.5371935096775
 11
225.5895751038006
 21
120.8371935106374
  0
LINE
  5
303
100
AcDbEntity
  8
0
  6
CONTINUOUS
 62
    7
370
   -1
100
AcDbLine
 10
223.5895751058406
 20
123.0371935099174
 11
223.5895751058406
 21
124.3371935108775
  0
LINE
  5
304
100
AcDbEntity
  8
0
  6
CONTINUOUS
 62
    7
370
   -1
100
AcDbLine
 10
223.5895751058406
 20
116.0371935094376
 11
223.5895751058406
 21
117.3371935103975
  0
LINE
  5
305
100
AcDbEntity
  8
0
  6
CONTINUOUS
 62
    7
370
   -1
100
AcDbLine
 10
222.9895751044214
 20
120.8371935106374
 11
222.9895751044214
 21
119.5371935096775
  0
LINE
  5
306
100
AcDbEntity
  8
0
  6
CONTINUOUS
 62
    7
370
   -1
100
AcDbLine
 10
220.9895751039212
 20
117.3371935103975
 11
220.9895751039212
 21
116.0371935094376
  0
LINE
  5
307
100
AcDbEntity
  8
0
  6
CONTINUOUS
 62
    7
370
   -1
100
AcDbLine
 10
220.9895751039212
 20
124.3371935108775
 11
220.9895751039212
 21
123.0371935099174
  0
LINE
  5
308
100
AcDbEntity
  8
0
  6
CONTINUOUS
 62
    7
370
   -1
100
AcDbLine
 10
219.4645751059216
 20
124.1871935111576
 11
219.4645751059216
 21
116.1871935091576
  0
LINE
  5
309
100
AcDbEntity
  8
0
  6
CONTINUOUS
 62
    7
370
   -1
100
AcDbLine
 10
210.5216818868412
 20
124.8800867278576
 11
208.1074683231009
 21
127.2943002915976
  0
LINE
  5
30A
100
AcDbEntity
  8
0
  6
CONTINUOUS
 62
    7
370
   -1
100
AcDbLine
 10
208.9681284966209
 20
123.6052129936374
 11
207.0325945902014
 21
125.5407469000574
  0
LINE
  5
30B
100
AcDbEntity
  8
0
  6
CONTINUOUS
 62
    7
370
   -1
100
AcDbLine
 10
164.8395751054413
 20
121.1871935091376
 11
158.7395751058211
 21
121.1871935091376
  0
LINE
  5
30C
100
AcDbEntity
  8
0
  6
CONTINUOUS
 62
    7
370
   -1
100
AcDbLine
 10
189.5895751049611
 20
120.8371935106374
 11
186.989575105581
 21
120.8371935106374
  0
LINE
  5
30D
100
AcDbEntity
  8
0
  6
CONTINUOUS
 62
    7
370
   -1
100
AcDbLine
 10
207.5895751043808
 20
120.8371935106374
 11
204.9895751050008
 21
120.8371935106374
  0
LINE
  5
30E
100
AcDbEntity
  8
0
  6
CONTINUOUS
 62
    7
370
   -1
100
AcDbLine
 10
225.5895751038006
 20
120.8371935106374
 11
222.9895751044214
 21
120.8371935106374
  0
LINE
  5
30F
100
AcDbEntity
  8
0
  6
CONTINUOUS
 62
    7
370
   -1
100
AcDbLine
 10
243.5895751057615
 20
120.8371935106374
 11
240.9895751038412
 21
120.8371935106374
  0
LINE
  5
310
100
AcDbEntity
  8
0
  6
CONTINUOUS
 62
    7
370
   -1
100
AcDbLine
 10
261.5895751051812
 20
120.8371935106374
 11
258.9895751058011
 21
120.8371935106374
  0
LINE
  5
311
100
AcDbEntity
  8
0
  6
CONTINUOUS
 62
    7
370
   -1
100
AcDbLine
 10
279.589575104601
 20
120.8371935106374
 11
276.9895751052209
 21
120.8371935106374
  0
LINE
  5
312
100
AcDbEntity
  8
0
  6
CONTINUOUS
 62
    7
370
   -1
100
AcDbLine
 10
297.5895751040207
 20
120.8371935106374
 11
294.9895751046406
 21
120.8371935106374
  0
LINE
  5
313
100
AcDbEntity
  8
0
  6
CONTINUOUS
 62
    7
370
   -1
100
AcDbLine
 10
315.5895751059806
 20
120.8371935106374
 11
312.9895751040613
 21
120.8371935106374
  0
LINE
  5
314
100
AcDbEntity
  8
0
  6
CONTINUOUS
 62
    7
370
   -1
100
AcDbLine
 10
164.8395751054413
 20
120.6871935109175
 11
164.9645751043608
 21
120.6871935109175
  0
LINE
  5
315
100
AcDbEntity
  8
0
  6
CONTINUOUS
 62
    7
370
   -1
100
AcDbLine
 10
158.7395751058211
 20
120.6871935109175
 11
158.6145751043614
 21
120.6871935109175
  0
LINE
  5
316
100
AcDbEntity
  8
0
  6
CONTINUOUS
 62
    7
370
   -1
100
AcDbLine
 10
163.0395751037213
 20
120.6871935109175
 11
160.5395751050009
 21
120.6871935109175
  0
LINE
  5
317
100
AcDbEntity
  8
0
  6
CONTINUOUS
 62
    7
370
   -1
100
AcDbLine
 10
160.5395751050009
 20
120.0871935094974
 11
159.4895751044214
 21
120.0871935094974
  0
LINE
  5
318
100
AcDbEntity
  8
0
  6
CONTINUOUS
 62
    7
370
   -1
100
AcDbLine
 10
163.9895751061813
 20
120.0871935094974
 11
163.0395751037213
 21
120.0871935094974
  0
LINE
  5
319
100
AcDbEntity
  8
0
  6
CONTINUOUS
 62
    7
370
   -1
100
AcDbLine
 10
312.9895751040613
 20
119.5371935096775
 11
315.5895751059806
 21
119.5371935096775
  0
LINE
  5
31A
100
AcDbEntity
  8
0
  6
CONTINUOUS
 62
    7
370
   -1
100
AcDbLine
 10
294.9895751046406
 20
119.5371935096775
 11
297.5895751040207
 21
119.5371935096775
  0
LINE
  5
31B
100
AcDbEntity
  8
0
  6
CONTINUOUS
 62
    7
370
   -1
100
AcDbLine
 10
276.9895751052209
 20
119.5371935096775
 11
279.589575104601
 21
119.5371935096775
  0
LINE
  5
31C
100
AcDbEntity
  8
0
  6
CONTINUOUS
 62
    7
370
   -1
100
AcDbLine
 10
258.9895751058011
 20
119.5371935096775
 11
261.5895751051812
 21
119.5371935096775
  0
LINE
  5
31D
100
AcDbEntity
  8
0
  6
CONTINUOUS
 62
    7
370
   -1
100
AcDbLine
 10
240.9895751038412
 20
119.5371935096775
 11
243.5895751057615
 21
119.5371935096775
  0
LINE
  5
31E
100
AcDbEntity
  8
0
  6
CONTINUOUS
 62
    7
370
   -1
100
AcDbLine
 10
222.9895751044214
 20
119.5371935096775
 11
225.5895751038006
 21
119.5371935096775
  0
LINE
  5
31F
100
AcDbEntity
  8
0
  6
CONTINUOUS
 62
    7
370
   -1
100
AcDbLine
 10
204.9895751050008
 20
119.5371935096775
 11
207.5895751043808
 21
119.5371935096775
  0
LINE
  5
320
100
AcDbEntity
  8
0
  6
CONTINUOUS
 62
    7
370
   -1
100
AcDbLine
 10
186.989575105581
 20
119.5371935096775
 11
189.5895751049611
 21
119.5371935096775
  0
LINE
  5
321
100
AcDbEntity
  8
0
  6
CONTINUOUS
 62
    7
370
   -1
100
AcDbLine
 10
330.0395751045007
 20
118.4371935100375
 11
334.0395751055012
 21
118.4371935100375
  0
LINE
  5
322
100
AcDbEntity
  8
0
  6
CONTINUOUS
 62
    7
370
   -1
100
AcDbLine
 10
100.0395751060805
 20
118.4371935100375
 11
104.0395751045407
 21
118.4371935100375
  0
LINE
  5
323
100
AcDbEntity
  8
0
  6
CONTINUOUS
 62
    7
370
   -1
100
AcDbLine
 10
133.8939311802414
 20
117.6871935114375
 11
136.1852190284407
 21
117.6871935114375
  0
LINE
  5
324
100
AcDbEntity
  8
0
  6
CONTINUOUS
 62
    7
370
   -1
100
AcDbLine
 10
187.5895751044609
 20
117.3371935103975
 11
184.9895751050808
 21
117.3371935103975
  0
LINE
  5
325
100
AcDbEntity
  8
0
  6
CONTINUOUS
 62
    7
370
   -1
100
AcDbLine
 10
205.5895751038806
 20
117.3371935103975
 11
202.9895751045014
 21
117.3371935103975
  0
LINE
  5
326
100
AcDbEntity
  8
0
  6
CONTINUOUS
 62
    7
370
   -1
100
AcDbLine
 10
223.5895751058406
 20
117.3371935103975
 11
220.9895751039212
 21
117.3371935103975
  0
LINE
  5
327
100
AcDbEntity
  8
0
  6
CONTINUOUS
 62
    7
370
   -1
100
AcDbLine
 10
241.5895751052612
 20
117.3371935103975
 11
238.9895751058812
 21
117.3371935103975
  0
LINE
  5
328
100
AcDbEntity
  8
0
  6
CONTINUOUS
 62
    7
370
   -1
100
AcDbLine
 10
259.589575104681
 20
117.3371935103975
 11
256.9895751053009
 21
117.3371935103975
  0
LINE
  5
329
100
AcDbEntity
  8
0
  6
CONTINUOUS
 62
    7
370
   -1
100
AcDbLine
 10
277.5895751041007
 20
117.3371935103975
 11
274.9895751047207
 21
117.3371935103975
  0
LINE
  5
32A
100
AcDbEntity
  8
0
  6
CONTINUOUS
 62
    7
370
   -1
100
AcDbLine
 10
295.5895751060607
 20
117.3371935103975
 11
292.9895751041413
 21
117.3371935103975
  0
LINE
  5
32B
100
AcDbEntity
  8
0
  6
CONTINUOUS
 62
    7
370
   -1
100
AcDbLine
 10
313.5895751054813
 20
117.3371935103975
 11
310.9895751061013
 21
117.3371935103975
  0
LINE
  5
32C
100
AcDbEntity
  8
0
  6
CONTINUOUS
 62
    7
370
   -1
100
AcDbLine
 10
310.9895751061013
 20
116.0371935094376
 11
313.5895751054813
 21
116.0371935094376
  0
LINE
  5
32D
100
AcDbEntity
  8
0
  6
CONTINUOUS
 62
    7
370
   -1
100
AcDbLine
 10
292.9895751041413
 20
116.0371935094376
 11
295.5895751060607
 21
116.0371935094376
  0
LINE
  5
32E
100
AcDbEntity
  8
0
  6
CONTINUOUS
 62
    7
370
   -1
100
AcDbLine
 10
274.9895751047207
 20
116.0371935094376
 11
277.5895751041007
 21
116.0371935094376
  0
LINE
  5
32F
100
AcDbEntity
  8
0
  6
CONTINUOUS
 62
    7
370
   -1
100
AcDbLine
 10
256.9895751053009
 20
116.0371935094376
 11
259.589575104681
 21
116.0371935094376
  0
LINE
  5
330
100
AcDbEntity
  8
0
  6
CONTINUOUS
 62
    7
370
   -1
100
AcDbLine
 10
238.9895751058812
 20
116.0371935094376
 11
241.5895751052612
 21
116.0371935094376
  0
LINE
  5
331
100
AcDbEntity
  8
0
  6
CONTINUOUS
 62
    7
370
   -1
100
AcDbLine
 10
220.9895751039212
 20
116.0371935094376
 11
223.5895751058406
 21
116.0371935094376
  0
LINE
  5
332
100
AcDbEntity
  8
0
  6
CONTINUOUS
 62
    7
370
   -1
100
AcDbLine
 10
202.9895751045014
 20
116.0371935094376
 11
205.5895751038806
 21
116.0371935094376
  0
LINE
  5
333
100
AcDbEntity
  8
0
  6
CONTINUOUS
 62
    7
370
   -1
100
AcDbLine
 10
184.9895751050808
 20
116.0371935094376
 11
187.5895751044609
 21
116.0371935094376
  0
LINE
  5
334
100
AcDbEntity
  8
0
  6
CONTINUOUS
 62
    7
370
   -1
100
AcDbLine
 10
164.8395751054413
 20
115.4871935096175
 11
164.9645751043608
 21
115.4871935096175
  0
LINE
  5
335
100
AcDbEntity
  8
0
  6
CONTINUOUS
 62
    7
370
   -1
100
AcDbLine
 10
158.7395751058211
 20
115.4871935096175
 11
158.6145751043614
 21
115.4871935096175
  0
LINE
  5
336
100
AcDbEntity
  8
0
  6
CONTINUOUS
 62
    7
370
   -1
100
AcDbLine
 10
310.9645751053013
 20
114.6871935094175
 11
314.6790411993407
 21
114.6871935094175
  0
LINE
  5
337
100
AcDbEntity
  8
0
  6
CONTINUOUS
 62
    7
370
   -1
100
AcDbLine
 10
292.9645751058815
 20
114.6871935094175
 11
296.6790411999209
 21
114.6871935094175
  0
LINE
  5
338
100
AcDbEntity
  8
0
  6
CONTINUOUS
 62
    7
370
   -1
100
AcDbLine
 10
274.9645751039206
 20
114.6871935094175
 11
278.6790411979609
 21
114.6871935094175
  0
LINE
  5
339
100
AcDbEntity
  8
0
  6
CONTINUOUS
 62
    7
370
   -1
100
AcDbLine
 10
256.9645751045009
 20
114.6871935094175
 11
260.6790411985412
 21
114.6871935094175
  0
LINE
  5
33A
100
AcDbEntity
  8
0
  6
CONTINUOUS
 62
    7
370
   -1
100
AcDbLine
 10
238.9645751050812
 20
114.6871935094175
 11
242.6790411991214
 21
114.6871935094175
  0
LINE
  5
33B
100
AcDbEntity
  8
0
  6
CONTINUOUS
 62
    7
370
   -1
100
AcDbLine
 10
220.9645751056614
 20
114.6871935094175
 11
224.6790411997008
 21
114.6871935094175
  0
LINE
  5
33C
100
AcDbEntity
  8
0
  6
CONTINUOUS
 62
    7
370
   -1
100
AcDbLine
 10
202.9645751037005
 20
114.6871935094175
 11
206.6790411977408
 21
114.6871935094175
  0
LINE
  5
33D
100
AcDbEntity
  8
0
  6
CONTINUOUS
 62
    7
370
   -1
100
AcDbLine
 10
184.9645751042808
 20
114.6871935094175
 11
188.6790411983211
 21
114.6871935094175
  0
LINE
  5
33E
100
AcDbEntity
  8
0
  6
CONTINUOUS
 62
    7
370
   -1
100
AcDbLine
 10
159.4895751044214
 20
114.5871935112975
 11
163.9895751061813
 21
114.5871935112975
  0
LINE
  5
33F
100
AcDbEntity
  8
0
  6
CONTINUOUS
 62
    7
370
   -1
100
AcDbLine
 10
104.0395751045407
 20
113.9996935102776
 11
100.0395751060805
 21
113.9996935102776
  0
LINE
  5
340
100
AcDbEntity
  8
0
  6
CONTINUOUS
 62
    7
370
   -1
100
AcDbLine
 10
334.0395751055012
 20
113.9996935102776
 11
330.0395751045007
 21
113.9996935102776
  0
LINE
  5
341
100
AcDbEntity
  8
0
  6
CONTINUOUS
 62
    7
370
   -1
100
AcDbLine
 10
158.6145751043614
 20
113.9871935098776
 11
164.9645751043608
 21
113.9871935098776
  0
LINE
  5
342
100
AcDbEntity
  8
02___PRT_ALL_AXES
  6
CONTINUOUS
 62
    7
370
   -1
100
AcDbLine
 10
158.6145751043614
 20
113.8621935109577
 11
164.9645751043608
 21
113.8621935109577
  0
LINE
  5
343
100
AcDbEntity
  8
0
  6
CONTINUOUS
 62
    7
370
   -1
100
AcDbLine
 10
208.1074683231009
 20
113.0800867287175
 11
210.5216818868412
 21
115.4943002924574
  0
LINE
  5
344
100
AcDbEntity
  8
0
  6
CONTINUOUS
 62
    7
370
   -1
100
AcDbLine
 10
207.0325945902014
 20
114.8336401202575
 11
208.9681284966209
 21
116.7691740266775
  0
LINE
  5
345
100
AcDbEntity
  8
0
  6
CONTINUOUS
 62
    7
370
   -1
100
AcDbLine
 10
217.7645751048613
 20
125.5871935102375
 11
217.7645751048613
 21
114.7871935100775
  0
LINE
  5
346
100
AcDbEntity
  8
0
  6
CONTINUOUS
 62
    7
370
   -1
100
AcDbLine
 10
216.4145751048409
 20
128.1871935096176
 11
216.4145751048409
 21
112.1871935106974
  0
LINE
  5
347
100
AcDbEntity
  8
0
  6
CONTINUOUS
 62
    7
370
   -1
100
AcDbLine
 10
212.1645751060014
 20
112.1871935106974
 11
212.1645751060014
 21
128.1871935096176
  0
LINE
  5
348
100
AcDbEntity
  8
0
  6
CONTINUOUS
 62
    7
370
   -1
100
AcDbLine
 10
210.814575105981
 20
116.2014070722976
 11
210.814575105981
 21
124.1729799480176
  0
LINE
  5
349
100
AcDbEntity
  8
0
  6
CONTINUOUS
 62
    7
370
   -1
100
AcDbLine
 10
192.5216818848812
 20
124.8800867278576
 11
190.1074683236811
 21
127.2943002915976
  0
LINE
  5
34A
100
AcDbEntity
  8
0
  6
CONTINUOUS
 62
    7
370
   -1
100
AcDbLine
 10
309.7645751050013
 20
112.7871935095775
 11
315.4003615423207
 21
112.7871935095775
  0
LINE
  5
34B
100
AcDbEntity
  8
0
  6
CONTINUOUS
 62
    7
370
   -1
100
AcDbLine
 10
291.7645751055807
 20
112.7871935095775
 11
297.400361542901
 21
112.7871935095775
  0
LINE
  5
34C
100
AcDbEntity
  8
0
  6
CONTINUOUS
 62
    7
370
   -1
100
AcDbLine
 10
273.7645751061609
 20
112.7871935095775
 11
279.4003615434813
 21
112.7871935095775
  0
LINE
  5
34D
100
AcDbEntity
  8
0
  6
CONTINUOUS
 62
    7
370
   -1
100
AcDbLine
 10
255.7645751042009
 20
112.7871935095775
 11
261.4003615415213
 21
112.7871935095775
  0
LINE
  5
34E
100
AcDbEntity
  8
0
  6
CONTINUOUS
 62
    7
370
   -1
100
AcDbLine
 10
237.7645751047812
 20
112.7871935095775
 11
243.4003615421007
 21
112.7871935095775
  0
LINE
  5
34F
100
AcDbEntity
  8
0
  6
CONTINUOUS
 62
    7
370
   -1
100
AcDbLine
 10
219.7645751053606
 20
112.7871935095775
 11
225.4003615426809
 21
112.7871935095775
  0
LINE
  5
350
100
AcDbEntity
  8
0
  6
CONTINUOUS
 62
    7
370
   -1
100
AcDbLine
 10
201.7645751059408
 20
112.7871935095775
 11
207.4003615432612
 21
112.7871935095775
  0
LINE
  5
351
100
AcDbEntity
  8
0
  6
CONTINUOUS
 62
    7
370
   -1
100
AcDbLine
 10
183.7645751039808
 20
112.7871935095775
 11
189.4003615413012
 21
112.7871935095775
  0
LINE
  5
352
100
AcDbEntity
  8
0
  6
CONTINUOUS
 62
    7
370
   -1
100
AcDbLine
 10
307.1645751056212
 20
111.4371935095576
 11
319.4145751039214
 21
111.4371935095576
  0
LINE
  5
353
100
AcDbEntity
  8
0
  6
CONTINUOUS
 62
    7
370
   -1
100
AcDbLine
 10
289.1645751062006
 20
111.4371935095576
 11
301.4145751045007
 21
111.4371935095576
  0
LINE
  5
354
100
AcDbEntity
  8
0
  6
CONTINUOUS
 62
    7
370
   -1
100
AcDbLine
 10
271.1645751042415
 20
111.4371935095576
 11
283.414575105081
 21
111.4371935095576
  0
LINE
  5
355
100
AcDbEntity
  8
0
  6
CONTINUOUS
 62
    7
370
   -1
100
AcDbLine
 10
253.1645751048209
 20
111.4371935095576
 11
265.4145751056613
 21
111.4371935095576
  0
LINE
  5
356
100
AcDbEntity
  8
0
  6
CONTINUOUS
 62
    7
370
   -1
100
AcDbLine
 10
235.1645751054011
 20
111.4371935095576
 11
247.4145751037013
 21
111.4371935095576
  0
LINE
  5
357
100
AcDbEntity
  8
0
  6
CONTINUOUS
 62
    7
370
   -1
100
AcDbLine
 10
217.1645751059814
 20
111.4371935095576
 11
229.4145751042806
 21
111.4371935095576
  0
LINE
  5
358
100
AcDbEntity
  8
0
  6
CONTINUOUS
 62
    7
370
   -1
100
AcDbLine
 10
199.1645751040214
 20
111.4371935095576
 11
211.4145751048609
 21
111.4371935095576
  0
LINE
  5
359
100
AcDbEntity
  8
0
  6
CONTINUOUS
 62
    7
370
   -1
100
AcDbLine
 10
181.1645751046008
 20
111.4371935095576
 11
193.4145751054411
 21
111.4371935095576
  0
LINE
  5
35A
100
AcDbEntity
  8
0
  6
CONTINUOUS
 62
    7
370
   -1
100
AcDbLine
 10
330.0395751045007
 20
110.4996935100375
 11
334.0395751055012
 21
110.4996935100375
  0
LINE
  5
35B
100
AcDbEntity
  8
0
  6
CONTINUOUS
 62
    7
370
   -1
100
AcDbLine
 10
100.0395751060805
 20
110.4996935100375
 11
104.0395751045407
 21
110.4996935100375
  0
LINE
  5
35C
100
AcDbEntity
  8
0
  6
CONTINUOUS
 62
    7
370
   -1
100
AcDbLine
 10
325.0395751045207
 20
109.6871935094375
 11
109.0395751045207
 21
109.6871935094375
  0
LINE
  5
35D
100
AcDbEntity
  8
0
  6
CONTINUOUS
 62
    7
370
   -1
100
AcDbLine
 10
97.03957510406055
 20
109.1871935112176
 11
337.0395751049809
 21
109.1871935112176
  0
LINE
  5
35E
100
AcDbEntity
  8
0
  6
CONTINUOUS
 62
    7
370
   -1
100
AcDbLine
 10
190.1074683236811
 20
113.0800867287175
 11
192.5216818848812
 21
115.4943002924574
  0
LINE
  5
35F
100
AcDbEntity
  8
0
  6
CONTINUOUS
 62
    7
370
   -1
100
AcDbLine
 10
209.1145751049207
 20
117.1227274165976
 11
209.1145751049207
 21
123.2516596037176
  0
LINE
  5
360
100
AcDbEntity
  8
0
  6
CONTINUOUS
 62
    7
370
   -1
100
AcDbLine
 10
207.5895751043808
 20
119.5371935096775
 11
207.5895751043808
 21
120.8371935106374
  0
LINE
  5
361
100
AcDbEntity
  8
0
  6
CONTINUOUS
 62
    7
370
   -1
100
AcDbLine
 10
205.5895751038806
 20
123.0371935099174
 11
205.5895751038806
 21
124.3371935108775
  0
LINE
  5
362
100
AcDbEntity
  8
0
  6
CONTINUOUS
 62
    7
370
   -1
100
AcDbLine
 10
205.5895751038806
 20
116.0371935094376
 11
205.5895751038806
 21
117.3371935103975
  0
LINE
  5
363
100
AcDbEntity
  8
0
  6
CONTINUOUS
 62
    7
370
   -1
100
AcDbLine
 10
204.9895751050008
 20
120.8371935106374
 11
204.9895751050008
 21
119.5371935096775
  0
LINE
  5
364
100
AcDbEntity
  8
0
  6
CONTINUOUS
 62
    7
370
   -1
100
AcDbLine
 10
202.9895751045014
 20
117.3371935103975
 11
202.9895751045014
 21
116.0371935094376
  0
LINE
  5
365
100
AcDbEntity
  8
0
  6
CONTINUOUS
 62
    7
370
   -1
100
AcDbLine
 10
202.9895751045014
 20
124.3371935108775
 11
202.9895751045014
 21
123.0371935099174
  0
LINE
  5
366
100
AcDbEntity
  8
0
  6
CONTINUOUS
 62
    7
370
   -1
100
AcDbLine
 10
190.9681284946609
 20
123.6052129936374
 11
189.0325945907807
 21
125.5407469000574
  0
LINE
  5
367
100
AcDbEntity
  8
0
  6
CONTINUOUS
 62
    7
370
   -1
100
AcDbLine
 10
189.0325945907807
 20
114.8336401202575
 11
190.9681284946609
 21
116.7691740266775
  0
LINE
  5
368
100
AcDbEntity
  8
0
  6
CONTINUOUS
 62
    7
370
   -1
100
AcDbLine
 10
201.4645751039607
 20
124.1871935111576
 11
201.4645751039607
 21
116.1871935091576
  0
LINE
  5
369
100
AcDbEntity
  8
0
  6
CONTINUOUS
 62
    7
370
   -1
100
AcDbLine
 10
199.7645751054406
 20
125.5871935102375
 11
199.7645751054406
 21
114.7871935100775
  0
LINE
  5
36A
100
AcDbEntity
  8
0
  6
CONTINUOUS
 62
    7
370
   -1
100
AcDbLine
 10
198.4145751054211
 20
128.1871935096176
 11
198.4145751054211
 21
112.1871935106974
  0
LINE
  5
36B
100
AcDbEntity
  8
0
  6
CONTINUOUS
 62
    7
370
   -1
100
AcDbLine
 10
194.1645751040414
 20
112.1871935106974
 11
194.1645751040414
 21
128.1871935096176
  0
LINE
  5
36C
100
AcDbEntity
  8
0
  6
CONTINUOUS
 62
    7
370
   -1
100
AcDbLine
 10
192.814575104021
 20
116.2014070722976
 11
192.814575104021
 21
124.1729799480176
  0
LINE
  5
36D
100
AcDbEntity
  8
0
  6
CONTINUOUS
 62
    7
370
   -1
100
AcDbLine
 10
191.1145751055009
 20
117.1227274165976
 11
191.1145751055009
 21
123.2516596037176
  0
LINE
  5
36E
100
AcDbEntity
  8
0
  6
CONTINUOUS
 62
    7
370
   -1
100
AcDbLine
 10
189.5895751049611
 20
119.5371935096775
 11
189.5895751049611
 21
120.8371935106374
  0
LINE
  5
36F
100
AcDbEntity
  8
0
  6
CONTINUOUS
 62
    7
370
   -1
100
AcDbLine
 10
187.5895751044609
 20
123.0371935099174
 11
187.5895751044609
 21
124.3371935108775
  0
LINE
  5
370
100
AcDbEntity
  8
0
  6
CONTINUOUS
 62
    7
370
   -1
100
AcDbLine
 10
187.5895751044609
 20
116.0371935094376
 11
187.5895751044609
 21
117.3371935103975
  0
LINE
  5
371
100
AcDbEntity
  8
0
  6
CONTINUOUS
 62
    7
370
   -1
100
AcDbLine
 10
186.989575105581
 20
120.8371935106374
 11
186.989575105581
 21
119.5371935096775
  0
LINE
  5
372
100
AcDbEntity
  8
0
  6
CONTINUOUS
 62
    7
370
   -1
100
AcDbLine
 10
184.9895751050808
 20
117.3371935103975
 11
184.9895751050808
 21
116.0371935094376
  0
LINE
  5
373
100
AcDbEntity
  8
0
  6
CONTINUOUS
 62
    7
370
   -1
100
AcDbLine
 10
184.9895751050808
 20
124.3371935108775
 11
184.9895751050808
 21
123.0371935099174
  0
LINE
  5
374
100
AcDbEntity
  8
0
  6
CONTINUOUS
 62
    7
370
   -1
100
AcDbLine
 10
183.4645751045409
 20
124.1871935111576
 11
183.4645751045409
 21
116.1871935091576
  0
LINE
  5
375
100
AcDbEntity
  8
0
  6
CONTINUOUS
 62
    7
370
   -1
100
AcDbLine
 10
181.7645751060208
 20
125.5871935102375
 11
181.7645751060208
 21
114.7871935100775
  0
LINE
  5
376
100
AcDbEntity
  8
0
  6
CONTINUOUS
 62
    7
370
   -1
100
AcDbLine
 10
180.4145751060014
 20
128.1871935096176
 11
180.4145751060014
 21
112.1871935106974
  0
LINE
  5
377
100
AcDbEntity
  8
02___PRT_ALL_AXES
  6
CONTINUOUS
 62
    7
370
   -1
100
AcDbLine
 10
164.9645751043608
 20
113.8621935109577
 11
164.9645751043608
 21
121.3121935105976
  0
LINE
  5
378
100
AcDbEntity
  8
0
  6
CONTINUOUS
 62
    7
370
   -1
100
AcDbLine
 10
164.8395751054413
 20
113.9871935098776
 11
164.8395751054413
 21
121.1871935091376
  0
LINE
  5
379
100
AcDbEntity
  8
0
  6
CONTINUOUS
 62
    7
370
   -1
100
AcDbLine
 10
163.9895751061813
 20
114.5871935112975
 11
163.9895751061813
 21
120.0871935094974
  0
LINE
  5
37A
100
AcDbEntity
  8
0
  6
CONTINUOUS
 62
    7
370
   -1
100
AcDbLine
 10
163.0395751037213
 20
120.0871935094974
 11
163.0395751037213
 21
120.6871935109175
  0
LINE
  5
37B
100
AcDbEntity
  8
0
  6
CONTINUOUS
 62
    7
370
   -1
100
AcDbLine
 10
160.5395751050009
 20
120.6871935109175
 11
160.5395751050009
 21
120.0871935094974
  0
LINE
  5
37C
100
AcDbEntity
  8
0
  6
CONTINUOUS
 62
    7
370
   -1
100
AcDbLine
 10
159.4895751044214
 20
120.0871935094974
 11
159.4895751044214
 21
114.5871935112975
  0
LINE
  5
37D
100
AcDbEntity
  8
0
  6
CONTINUOUS
 62
    7
370
   -1
100
AcDbLine
 10
158.7395751058211
 20
121.1871935091376
 11
158.7395751058211
 21
113.9871935098776
  0
LINE
  5
37E
100
AcDbEntity
  8
02___PRT_ALL_AXES
  6
CONTINUOUS
 62
    7
370
   -1
100
AcDbLine
 10
158.6145751043614
 20
121.3121935105976
 11
158.6145751043614
 21
113.8621935109577
  0
LINE
  5
37F
100
AcDbEntity
  8
0
  6
CONTINUOUS
 62
    7
370
   -1
100
AcDbLine
 10
109.0395751045207
 20
109.1871935112176
 11
109.0395751045207
 21
131.1871935090976
  0
LINE
  5
380
100
AcDbEntity
  8
0
  6
CONTINUOUS
 62
    7
370
   -1
100
AcDbLine
 10
108.4395751056408
 20
109.1871935112176
 11
108.4395751056408
 21
131.1871935090976
  0
LINE
  5
381
100
AcDbEntity
  8
0
  6
CONTINUOUS
 62
    7
370
   -1
100
AcDbLine
 10
96.53957510584134
 20
130.6871935108774
 11
96.53957510584134
 21
109.6871935094375
  0
LINE
  5
382
100
AcDbEntity
  8
0
  6
CONTINUOUS
 62
    7
370
   -1
100
AcDbLine
 10
366.0173234661643
 20
50
 11
366.0173234661643
 21
283.9539087353303
  0
LINE
  5
383
100
AcDbEntity
  8
0
  6
CONTINUOUS
 62
    7
370
   -1
100
AcDbLine
 10
50
 20
283.9539087353303
 11
366.0173234661643
 21
283.9539087353303
  0
LINE
  5
384
100
AcDbEntity
  8
0
  6
CONTINUOUS
 62
    7
370
   -1
100
AcDbLine
 10
50
 20
50
 11
366.0173234661643
 21
50
  0
LINE
  5
385
100
AcDbEntity
  8
0
  6
CONTINUOUS
 62
    7
370
   -1
100
AcDbLine
 10
50
 20
50
 11
50
 21
283.9539087353303
  0
ENDSEC
  0
SECTION
  2
OBJECTS
  0
DICTIONARY
  5
C
330
0
100
AcDbDictionary
281
    1
  3
ACAD_GROUP
350
D
  0
DICTIONARY
  5
D
330
C
100
AcDbDictionary
281
    1
  0
ENDSEC
  0
EOF
